Oops, an error
Loading. Please wait.

Mi Fortaleza chords

version 1
version 1

Whole song

41 views 1 this week
no commentswrite comment
1 2 3 4 5
3 more votes to show rating
add to favorites
×
Save as Personal and add changes to this tab that will be seen only by you. Learn more ›
×
You can save this tab as Personal to edit and correct it or add notes. All changes will be seen only by you. Learn more »
launch autoscroll
font size
0
reset
transpose
0
reset
display chords
guitar tuner
edit
Autoscroll
slow
fast
+/-
esc
set tempo
stop
Strumming
There is no strumming pattern for this song yet. and get +5 IQ
Este es el arpegio de introducción:


          C                  Em                Am                        
e|--0--------0-------|--0---------0----|---0--------0-----|
B|--------1--------- |----------0------|---------1--------|
G|-----0------------ |-------0---------|-------2----------|
D|------------------ | ----------------|------------------|
A|--3----------------| ----------------|---0--------------|
E|-------------------|--0--------------|------------------|

        F                 G                  Am
|--1---------1--|---3----------3---|--5-------------5----
|---------1-----|-----------3------|---------5-----------
|------2--------|--------4---------|------5-----5--------
|---------------|------------------|----------------------
|---------------|------------------|---------------------
|--1------------|---3--------------|--5-------------5----


(va con el arpegio)

  C               Em    Am
Pacientemente esperé en ti Señor
   F             G             Am
en medio de la angustia te busqué
   C               Em         Am
postrado ante tu altar te adoré Señor
  F           G          Am
y con mi arpa yo te declaré:

CORO:

F        G          Am
Eres Jehová mi fortaleza
   F             G             Am...
el Dios de mi alegría y de mi gozo eres tú Señor
   F               G               Am
en medio de la congregación yo te alabaré
        F   G       Am
porque tú eres mi Libertador

            
            
Suggest correction
Creating personal tab
Creating personal tab
You can edit any tab online and save it as your Personal.

You can edit, replace or remove any tab part or add personal notes – all changes will be seen only by you.

Personal tabs can be accessed anytime from any device, even offline.
Learn more »
Give kudos to tab author, rate the tab!
1 2 3 4 5
comments
print report bad tab
guest
Wanna post a correction for this tab? Suggest correction