Oops, an error
Loading. Please wait.

Nocturne Op 9 No 2 Tab

version 1
version 1

Whole song

Interactive

122,133 views 339 this week
1 commentread comment
1 2 3 4 5
x 7
add to favorites
launch autoscroll
font size
0
reset
how to read this tab
guitar tuner
Autoscroll
slow
fast
+/-
esc
set tempo
stop
Help us to improve Ultimate-Guitar.com Take our survey!
×
Chopin Nocturne Op 9 No 2
Transcribed by Giancarlo Bellido
vicentico1@hotmail.com
12/18/01


e|--|------------------------|--------------3-----1-----------|------------------------|
B|--|3-------1-3-1-----------|3-0---------------3-----0-4-1-3-|1-----3-----------------|
G|--|------------------3-----|----0-1-0---0---0-----1-----0---|----2-----2-3---0-0-----|
D|3-|--0-3---4-----0-3---0-3-|--3-------4-----3---------------|--1-----0-----0---------|
A|--|1-----1-----1-----0-----|--------------2-----3-----3-----|----------------------4-|
E|--|------------------------|3-------------------------------|1-----2-----3-----0-6---|

e|--5-3-1-----------------------|--------------------------------------------|
B|--------4-3-4-----------------|3-----1-3-1-3-1---1-3-1-------1---1-------1-|
G|--3---2-------0-2-3-----------|----------------4-------3-------3---3-2-3---|
D|3-----1-------------0-3---0-3-|--0-3-----1-------4-------3-----3-----------|
A|------------------1-----1-----|1-1---1---------------1-5---0---------------|
E|1-----1-----------------------|--------------------------------------------|

e|------------------4-3---1-----------|------------------------------------------------------------------|
B|3---------1---4-3-----3-------4-1-3-|1-3-1-3-1-3-1-3-1-3-1-3-1-3-1-3-1-3-1-3-113-----3-3---------------|
G|------1-----4-------------1-4-------|--------------------------------------------4-5---2-2-3---0-------|
D|3-4-5---5-----------------------5---|--------------------------------------------------0-----0---------|
A|------------------------3-----3-----|----------------6-----------------------------------------------4-|
E|3-----------------------------------|1-----------------------------------------------2-----3-----0-6---|

e|--5-3-1-----------------------|------------------------|
B|--------4-3-4-----------------|1-----3---1-1-----------|
G|--3---2-------0-2-3-------2-3-|----2---2-------0-0-----|
D|3-----1-------------0-3---0-3-|----------------------2-|
A|------------------1-----1-----|--3-----3-----3-----3---|
E|1-----1-----------------------|1-----1-----0-----0-----|

e|----------------------------|1-----0---------------|------------------------|
B|------------1---------------|3-------3-1-----------|------------------------|
G|3-3-3-3-2-3---3-3-----------|1-1-1-0-------0-2-----|3-0-3-2-0-2-------0-0-2-|
D|1-1---4-----------0-3-3-0-3-|3-3-3-3-3-2-----3-0-0-|--0-0---2-2-3-4-4-3-2-1-|
A|----------------1-----1-----|2-----2---3-3---------|----1-3-1-3-0-4-2-2-1-3-|
E|----------------------------|----------------------|3-----------1-0-------1-|


e|----------------------------------------------------|
B|------3---------------3-1-1---------1---1---------1-|
G|----3-------------1-2-2---------3-----3---3-2-3-----|
D|0-3-----3-2-3-4-3-----1-------0-3---3-----------3---|
A|----1---1-----1-------------1-----0-----------------|
E|----------------------------------------------------|

e|--------------------------2-3-4-3-------1-2-3---1-----------|
B|3-------------1---1-3-4-3---------3-4-5-------3-------4-1-3-|
G|------1---3-4---4---------------------------------1-4---0---|
D|3-4-5---5---------------------------------------------------|
A|------------------------------------------------3-----3-----|
E|3-----------------------------------------------------------|


e|------------------------------------------------------------------|
B|1-3-1-3-1-3-1-3-1-3-1-3-1-3-1-3-1-3-1-3-1-3-----3-3---------------|
G|--------------------------------------------4-5---2-2-3---0-------|
D|--------------------------------------------------0-----0---------|
A|----------------6-----------------------------------------------4-|
E|1-----------------------------------------------2-----3-----0-6---|


e|--5-3-2-3-5-3-------------------------|------------------------------------|------------------------|
B|--------------3-4-6-4-----------------|--------------0-1-------------------|----1---1-------1-----1-|
G|----------------------4-5-7-5-1-2-3-2-|----0---0-1-2-----3-3-------3-3-----|--2-----2-----0-----0-0-|
D|3-------------------------------------|2-3---3-4---------------0-3-3-3-----|------0-------------2-2-|
A|1-------------------------------------|----------------------1---------0-1-|3---------3-3-----------|
E|--------------------------------------|------------------------------------|1-----------0-----3-----|

e|------------------------------------|------------------------|
B|------------------------------------|----3---0-------1-----3-|
G|------3-----------------3---------3-|--1-----------0-0---2-2-|
D|------4-----------3-------------3---|3-----2-3-0---2-2-0-3-3-|
A|1-1-1-1-0-1-3-1-1---0---------------|2-----------3-----0-----|
E|----------------------4---3-2-1-----|------3-----------------|


e|------------------------|----------------------------------------------|
B|--------1---------------|----------------------------------------------|
G|--0-3---0---------0-0-2-|------3---------------------------------------|
D|--0-----2---3-4-4-3-2-2-|--0-0-3-------------0-----3-------------------|
A|1-----0---0-0-4-2-2-1-3-|1-----------------0---3-3---1-1-3-1-3-1-0-1-3-|
E|--------3---1-0-------1-|1-------0-1-2-1-4-----------------------------|

e|------------------------------------|
B|0---------------------------0---1---|
G|------------------1-0-----1-----0---|
D|3-------------1-0-----0-3-----1---0-|
A|----------3-2-----------------3-----|
E|3-2-3-4-3---------------------------|

e|------------------------------------------------------------------|
B|--------------------------------------------------3---------------|
G|--------------------------------------------------2-------3-----3-|
D|1-0---0---0---0---0---0---0---0---0---0---0-----0-4-----0---------|
A|3---3---3---3---3---3---3---3---3---3---3---2-3-----0-1-------4---|
E|------------------------------------------------------3-----3-----|


e|----------------------------------------------|------------------------|
B|----------------------------------------------|------1---1-3-----------|
G|--2-0---------------------------------3-------|3-------3---------3-----|
D|3-----3-2-1-----------------0-------3-----0-3-|--1-4---4-----0-3-3-0-3-|
A|1-----------3-0-----------0-1-3-1-1-----1-----|1-----1-----1-----1-----|
E|----------------1-0-1-2-3---------------------|------------------1-----|

e|--------------------------------6-5-3-|
B|------------------3---------------3---|
G|3-------5-3-5-3-5-----3-5-3-2-3---3---|
D|--1-4-----4---4-----3-3---------------|
A|1-----1-----------1-------------------|
E|--------------------------------6-----|

e|1---0---------------------------108-6-5-3-|
B|------4-------------1---1-----------------|
G|--2---2-------0-2-3---3---3-2-3-----------|
D|--3---3-2-3-4-----0-----------------------|
A|1-----------------1-------------7---------|
E|------------------------------------------|


e|2-1-0-0-----------------------|------------------------------------|
B|--1-----4-4-3-3-1-------------|------------------------------------|
G|--2-------2---2---3-----3-----|----3-3---------------------3-3-----|
D|----------1---1-----0-3-3-0-3-|1-4-------------------0-0-3---3-0-3-|
A|1-----1-----------1-----------|1-----1-3-1-3-1-3-1-3---1-----------|
E|------------------------------|------------------------------------|

e|------------------------2-6-8-10------1-6-6-5-3-|
B|----------------------4-------------3-----------|
G|--------------------3---------7-3-3---------3-3-|
D|4-1---1-0-1-----1-4---------10------------------|
A|6-------------1---------------------------3-----|
E|----1-------2-----------------------------------|


e|2-1-0---------6-------3-|2-----------1-----1-|
B|------4-3-----3-----1-1-|----------1-----1---|
G|--2-----2-2-3-3-3---3-0-|2-------2-----2-----|
D|--1-----4-----------2-2-|1-----1-------------|
A|------------------------|----3---------------|
E|1-----2-----3-----0-----|1-1-----------------|

e|1-2-1-2-1-2-1-2-1-2-1-2-1-2-1-2-1-2-1-2-1-2-1-2-1-2-1-2-1-2-1-2-1-2-|
B|--------------------------------------------------------------------|
G|--------------------------------------------------------------------|
D|--------------------------------------------------------------------|
A|--------------------------------------------------------------------|
E|--------------------------------------------------------------------|

e|-1-2-1-2-1-2-1-2-1-2-1-2-1-2-1-2-1-2-1-2-1-2-1-2-1-2-1-2-1-2-0-1-0---1---|
B|-------------------------------------------------------------------4---4-|
G|-------------------------------------------------------------------------|
D|-------------------------------------------------------------------------|
A|-------------------------------------------------------------------------|
E|-------------------------------------------------------------------------|

e|--------------------------------------------------------------------------|
B|3-4-3-1-3-1---1-----------------------------------------------------------|
G|------------3---3-2-3-2-0-2-0---0-----------------------------------------|
D|------------------------------3---3-1-3-1-0-1-0---0-----------------------|
A|------------------------------------------------3---3-1-3-1-0-1-0---0-----|
E|------------------------------------------------------------------3---3-1-|

e|----------------8-6-6-5-8-5-5-3-6-3-3-1-5-1-1---3-------1---------------------------|
B|------------1-4-------------------------------4---4-4-3---3-3-1-4-1-1-0-3-0-3-1-4-1-|
G|----------2-------------------------------------------------------------------------|
D|------1-3---------------------------------------------------------------------------|
A|--0-3-------------------------------------------------------------------------------|
E|1-----------------------------------------------------------------------------------|

e|----------------------------------------------------------------------------------------|
B|1-0-3-0-3-1-4-1-1-0-3-0-3-1-4-1-1-0-3-0-3-1-4-1-4-1-4-1-4-1-4-1-4-1-4-1-4-1-4-1-4-1-4-1-|
G|----------------------------------------------------------------------------------------|
D|----------------------------------------------------------------------------------------|
A|----------------------------------------------------------------------------------------|
E|----------------------------------------------------------------------------------------|

e|--------------------------------------------------------------------------------------------|
B|4-1-4-1-4-1-4-1-4-1-4-1-4-1-4-1-4-1-4-1-4-1-4-1-4-1-4-1-4-1-4-1-4-1-4-1-4-1-4-1-------------|
G|------------------------------------------------------------------------------------0---2-0-|
D|----------------3---------------------------------------------------------------3-2---3-----|
A|--------------------------------------------------------------------------------------------|
E|--------------------------------------------------------------------------------------------|


e|--------------------------------8---108-1110|8-1011108-------8-------------------|
B|--------------------8---108-1110--12--------|----------111011--11108-----8-------|
G|------------8---108---10----------------8---|------------------------109---108---|
D|8---108-1210--12----------------------------|----------------------------------12|
A|--12----------------------------------------|------------------------------------|
E|--------------------------------------------|------------------------------------|

e|------------------------------------------------|--------------------------|
B|--3-4-3-----------------------------------------|--------------------------|
G|5-------5-3-2-3-5-3-2---------------------------|----------------------2-5-|
D|----------------------5-3-2-5-3-----------------|--------------------3-----|
A|--------------------------------6-5-3-5-6-5-3---|----3-----------3-6-------|
E|----------------------------------------------6-|5-6---6-5-3-1-5-----------|


e|5-3---------------------|------------------------------------|------------------------|6-------------||
B|----6-4-3-6-4---3-------|------------------------------------|----3-----3---------3-6-|------3-------||
G|--------------4---5---3-|2-3-2-3-2-3-2-3-2-3-2-3-2-3-3-2-0-2-|3-----3-----3-----3-----|3-----------3-||
D|--------------------5---|------------------------------------|--3-----3-------3-----3-|----0-----0---||
A|------------------------|------------------------------------|5-----5-----5-5---------|--1-----1-----||
E|------------------------|1-----------------------------------|------------------------|--------------||
Suggest correction
comments
print report bad tab
1 comment total.
+1 reply
rzolko 11 Apr 07, 2014 12:40 PM

So hard!!!

guest
You may want to rate the tab now too:
select rating
Wanna post a correction for this tab? Suggest correction