Oops, an error
Loading. Please wait.

Op 28 No 4 - Prelude In Em Tab

13,798 views 75 this week
no commentswrite comment
1 2 3 4 5
excellent!
x 4
add to favorites
launch autoscroll
font size
0
reset
how to read this tab
guitar tuner
Tab Pro tools
  • play this tab
  • loop segment
  • change instrument
  • show fretboard
  • metronome
×
Best way to learn
"Op 28 No 4 - Prelude In Em"
Autoscroll
slow
fast
+/-
esc
set tempo
stop
Contributor
CHOPIN: Prelude Op 28 No 4 in Em

Arranged for guitar by Andrew Palmer
24th March 2004
Mistakes/Suggestions/Comments - palmer@yorku.ca
measures 19,20 and 25 corrected 23rd April 2004

measures 24-26 corrected to the sheet -- the rest of the piece could maybe
do with checking as well -- left hand fingering would be useful, as some
of the fingering is not obvious -- Weed -- 13 Aug 2008 -- weed@wussu.com

1.   |  .      |  .  |  .  |  .  |  .     
E---------7-|--7-----------------8------|--7-----------------8------|
B----0------|---------------------------|---------------------------|
G-----------|--9--9--9--9--9--9--9--9---|--9--9--9--9--8--8--8--8---|
D-----------|--9--9--9--9--9--9--9--9---|--7--7--7--7--7--7--7--7---|
A-----------|--10-10-10-10-10-10-10-10--|--9--9--9--9--9--9--9--9---|
E-----------|---------------------------|---------------------------|

4.    |  .  |  .  |  .  |  .      |  .  |  .  |  .  |  .     
E--|--7-----------------8------|--7-----------------6------|
B--|---------------------------|---------------------------|
G--|--8--8--8--8--7--7--7--7---|--7--7--7--7--7--7--6--6---|
D--|--7--7--7--7--7--7--6--6---|--6--6--6--6--6--6--5--5---|
A--|--8--8--8--8--8--8--8--8---|--7--7--7--7--7--7--7--7---|
E--|---------------------------|---------------------------|

6.    |  .  |  .  |  .  |  .      |  .  |  .  |  .  |  .     
E--|--5-----------------7------|--5-----------------7------|
B--|---------------------------|---------------------------|
G--|--5--5--5--5--5--5--5--5---|--5--5--5--5--5--5--5--5---|
D--|--5--5--5--5--4--4--4--4---|--4--4--4--4--4--4--4--4---|
A--|--7--7--7--7--7--7--7--7---|--7--7--7--7--6--6--6--6---|
E--|---------------------------|---------------------------|

8.    |  .  |  .  |  .  |  .      |  .  |  .  |  .  |  .     
E--|--5-----------------7----5-|--5-----------------4------|
B--|---------------------------|---------------------------|
G--|--5--5--5--5--5--5--5--5---|--5--5--5--5--4--4--4--4---|
D--|--4--4--4--4--4--4--4--4---|--3--3--3--3--3--3--3--3---|
A--|--5--5--5--5--5--5--5--5---|--5--5--5--5--5--5--5--5---|
E--|---------------------------|---------------------------|

10.   |  .  |  .  |  .  |  .      |  .  |  .  |  .  |  .     
E--|-----------7--10-8--0--5---|--2-----------------5------|
B--|--------10-----------------|---------------------------|
G--|--------------------2--2---|--2--2--2--2--2--2--2--2---|
D--|--9--9--7--7--7--7--2--2---|--2--2--1--1--2--2--2--2---|
A--|--7--7--7--7--7--7--3--3---|--2--2--2--2--3--3--3--3---|
E--|--8--8--8--8--8--8---------|---------------------------|

12.   |  .  |  .  |  .  |  .      |  .  |  .  |  .  |--3--      
E--|--2-----------------5------|--3--2-----------2--10-8-7-|
B--|---------------------------|--------1--0--4------------|
G--|--2--2--2--2--2--2--2--2---|--2------------------------|
D--|--1--1--1--1--2--2--2--2---|--1------------------------|
A--|--2--2--2--2--3--3--3--3---|--2------------------------|
E--|---------------------------|---------------------------|

14.   |  .  |  .  |  .  |  .      |  .  |  .  |  .  |  .     
E--|--7-----------------8------|--7-----------------8------|
B--|---------------------------|---------------------------|
G--|--9--9--9--9--9--9--9--9---|--9--9--9--9--8--8--8--8---|
D--|--9--9--9--9--9--9--9--9---|--7--7--7--7--7--7--7--7---|
A--|--10-10-10-10-10-10-10-10--|--9--9--9--9--8--8--8--8---|
E--|---------------------------|---------------------------|

16.   |  .  |  .  |  .  |  .      |  .   |  .  |  .  |  .     
E--|--7-----------------8------|--7----6-6-----3-----2----0-|
B--|---------------------------|----------------------------|
G--|--8--8--7--7--7--7--7--7---|--7--7---6--6--3--3--2--2---|
D--|--6--6--6--6--5--5--5--5---|--4--4---4--4--2--2--2--2---|
A--|--8--8--8--8--6--6--6--6---|--6--6---6--6--4--4--3--3---|
E--|---------------------------|----------------------------|

18.   |  .  |  .  |  .  |  .      |  .  |--3-- |  .  |  .     
E--|--0-----7--------0--3------|--10-8--12-0-5-2--------5--|
B--|-----4--4--4--4--4--5------|--5--5---------0--0--------|
G--|-----5--5--5--4--4--4--4---|--5--5-------5-------2--2--|
D--|-----7--7--7--5--5--5--5---|--7--7-------4-2--2--2--2--|
A--|--2------------------------|--------0----7-2--2--3--3--|
E--|---------------------------|---------------------------|

20.   |  .  |  .  |  .  |  .      |  .  |  .  |  .  |  .     
E--|--2-----------------5------|--2----------------------0-|
B--|--0--0--0--0---------------|--0--0--0--0--0--0---------|
G--|--------------2--2--2--2---|--------------------2--2---|
D--|--2--2--2--2--2--2--2--2---|--2--2--2--2--1--1--1--1---|
A--|--2--2--2--2--3--3--3--3---|--2--2--2--2--2--2--2--2---|
E--|---------------------------|---------------------------|

22.   |  .  |  .  |  .  |  .      |  .  |  .  |  .  |  .     
E--|--0-----------------2------|--0-----------------2------|
B--|---------------------------|---------------------------|
G--|--0--0--0--0--3--3--2--2---|--2--2--1--1--0--0--0--0---|
D--|--------------------2--2---|--2--2--2--2--2--2--2--2---|
A--|--3--3--3--3--3--3--3--3---|--2--2--2--2--2--2--2--2---|
E--|---------------------------|---------------------------|

24.   |  .  |  .   |  .  |  .     |  .  |  .  |  .  |  .     
E--|--0------------------------|--0------------------------|
B--|---------------------------|--0-----------4------------|
G--|--0------------------------|--------------4------------|
D--|---------------------------|--4-----------4------------|
A--|--3------------------------|--7-----------6------------|
E--|--6------------------------|--7-----------7------------|

26.   |  .  |  .   |  .  |  .        
E--|--0-----------------------||
B--|--0-----------------------||
G--|--0-----------------------||
D--|--2-----------------------||
A--|--------------------------||
E--|--0-----------------------||

comments
print report bad tab
I want to post or [tab]
guest
You may want to rate the tab now too:
select rating
Please do not post tabs as comments. Select "correction" instead!