Oops, an error
Loading. Please wait.

Linda Linda chords

169 views 3 this week
no commentswrite comment
1 2 3 4 5
3 more votes to show rating
add to favorites
×
Save as Personal and add changes to this tab that will be seen only by you. Learn more ›
×
You can save this tab as Personal to edit and correct it or add notes. All changes will be seen only by you. Learn more »
launch autoscroll
font size
0
reset
transpose
0
reset
display chords
guitar tuner
edit
Autoscroll
slow
fast
+/-
esc
set tempo
stop
Author
Difficulty
intermediate
Strumming
There is no strumming pattern for this song yet. and get +5 IQ
/ = slide

[Intro]

e|--------------------------------------------------|
B|-3--3--3-3/4-1-1-1-1/3----------------------------|
G|-----------------------3-3-3-3/5-2-2-2------------|
D|---------------------------------------5----------|  (x2)
A|--------------------------------------------------|
E|--------------------------------------------------|


[Verse 1]
Gm
   Muistan illan jolloin viettelit mun
                  D
Yöhön etelän toit kuumaa huumaa
D
Tunsin tulisesti haasteesi sun
                    Bb     Gm
Annoit aloitteen sä siihen suuntaan
F                             Bb
  Tanssit auringossa kiihkein liikkein
F                    Bb    D
Ja tiesit hyvin mitä mulle teit


[Chorus]
Gm
Linda Linda oo Linda
                    D
Linda Linda muistan sua
            Gm
Tuon nuoren vartalon
C           F
  Nään alla auringon
D          Gm        F     D
  Sen joka liike suo nautinnon

Gm
Linda Linda oo Linda
                   D
Linda Linda muista mua
           Gm
Kun saavun uudestaan
C             F
  Sun haastan uusintaan
D              Gm          F     D
  Saat silloin liekin tään kuumentaa


[Verse 2]
Gm
Huulet raollaan mun vierelläin oot
                     D
Keinut hiekalla niin raukein katsein
D
Tuoksut hyvältä jo syttynyt oon
                   Gm
Siirryt lähemmäksi notkein lantein
F                    Bb
Villit väreet kulkee selkää pitkin
F                          Bb     D
Ne saa mun pään ja saa mun kiihdyksiin


[Chorus]
Gm
Linda Linda oo Linda
                    D
Linda Linda muistan sua
            Gm
Tuon nuoren vartalon
C           F
  Nään alla auringon
D        Gm        F     D
Sen joka liike suo nautinnon

Gm
Linda Linda oo Linda
                   D
Linda Linda muista mua
           Gm
Kun saavun uudestaan
C             F
  Sun haastan uusintaan
D              Gm          F     D
  Saat silloin liekin tään kuumentaa
 

[Chorus]
Am
Linda Linda oo Linda
                    E
Linda Linda muistan sua
            Am
Tuon nuoren vartalon
D           G
  Nään alla auringon
E        Am        G     E
Sen joka liike suo nautinnon


[Interlude]

e|-------------------------------------------------|
B|-5--5--5-5/6-3-3-3-3/5-1-1-1-1/3-----------------|
G|---------------------------------4-4-4-2---------|
D|-------------------------------------------------|  (x4)
A|-------------------------------------------------|
E|-------------------------------------------------|


[Chorus]
Am
Linda Linda oo Linda
                   E
Linda Linda muista mua
           Am
Kun saavun uudestaan
D             G
  Sun haastan uusintaan
E              Am          G     E
  Saat silloin liekin tään kuumentaa

Am
Linda Linda oo Linda
                   E
Linda Linda muista mua
           Am
Kun saavun uudestaan
D             G
  Sun haastan uusintaan
E              Am          G     E
  Saat silloin liekin tään kuumentaa


[Outro]

e|-------------------------------------------------|
B|-5--5--5-5/6-3-3-3-3/5-1-1-1-1/3-----------------|
G|---------------------------------4-4-4-2---------|
D|-------------------------------------------------|  (x2)
A|-------------------------------------------------|
E|-------------------------------------------------|

Am

            
            
Suggest correction
Creating personal tab
Creating personal tab
You can edit any tab online and save it as your Personal.

You can edit, replace or remove any tab part or add personal notes – all changes will be seen only by you.

Personal tabs can be accessed anytime from any device, even offline.
Learn more »
Give kudos to tab author, rate the tab!
1 2 3 4 5
comments
print report bad tab
guest
You may want to rate the tab now too:
select rating
Wanna post a correction for this tab? Suggest correction