Oops, an error
Loading. Please wait.

All Right Now Bass Tab

version 2
by Free
18,813 views 18 this week
6 commentsread comments
1 2 3 4 5
worth learning
x 5
add to favorites
launch autoscroll
font size
0
reset
guitar tuner
Tab Pro tools
  • play this tab
  • loop segment
  • change instrument
  • show fretboard
  • metronome
Autoscroll
slow
fast
+/-
esc
set tempo
stop
Contributor
I learned this from my instructor who actually played with Free so i know it all but 
at 4 in the morning on a snowday so if anythings like totally out of wack leave a comment 
rate.


Bass starts at the chorus
\Slide Up, /Slide Down, *Pause

1st Chorus
G-----------------| x2
D-----------------|
A-12-12-12--------|
E----------14-12--|

G-----------------|
D-----------------|
A-12-12-------12--|
E-------12-14-----|

G--------------------|
D--------------------|
A-12-12-------12-----|
E-------12-14----14--|

G-----------------| x2
D-----------------|
A-12-12-12--------|
E----------14-12--|

G-------------------|
D-------------------|
A-12-12-12----------|
E----------14-12/5--|

2nd Chorus
G-----------------| x2
D-----------------|
A-12-12-12--------|
E----------14-12--|

G-----------------|
D-----------------|
A-12-12-------12--|
E-------12-14-----|

G----------------|
D----------------|
A-12*12-12-------|
E----------1214--|

G-----------------|
D-----------------|
A-12-12-12--------|
E----------14-12--|

G--------12-14--|
D-----14--------|
A-12*-----------|
E---------------|

G-------------------|
D-------------------|
A-12-12-12----------|
E----------14-12/5--|

Solo
G---------------------19----19--| x18
D------------------17----15-----|
A-------------------------------|
E-55-5-0-3-5-5-3-0--------------|

G---------------------19----19----|
D------------------17----15----2--|
A---------------------------------|
E-55-5-0-3-5-5-3-0----------------|

3rd Chorus
G-----------------| x2
D-----------------|
A-12-12-12--------|
E----------14-12--|

G-----------------|
D-----------------|
A-12-12-------12--|
E-------12-14-----|

G----12-14-12------|
D-15----------15/--|
A------------------|
E------------------|

G-----------------| x2
D-----------------|
A-12-12-12--------|
E----------14-12--|

G-------------------|
D-------------------|
A-12-12-12----------|
E----------14-12/5--|

G-----------------| x2
D-----------------|
A-12-12-12--------|
E----------14-12--|

G-----------------|
D-----------------|
A-12-12-------12*-|
E-------12-14-----|

G-------------|
D-------------|
A-12-12-------|
E-------1214--|

G-----------------| x2
D-----------------|
A-12-12-12--------|
E----------14-12--|

G-------------------|
D-------------------|
A-12-12-12----------|
E----------14-12/5--|

4th Chorus
G-----------------| x2
D-----------------|
A-12-12-12--------|
E----------14-12--|

G------------------------15-----|
D------------------15*17----17--|
A-12-12------15-17--------------|
E-------12-14-------------------|

G-----------------| x2
D-----------------|
A-12-12-12--------|
E----------14-12--|

G-----------------|
D-----------------|
A-12-12-------12--|
E-------12-14-----|

G--------------------|
D--------------------|
A-12-12-------12-----|
E-------12-14----14--|

G-----------------| x2
D-----------------|
A-12-12-12--------|
E----------14-12--|

G-------------------|
D-------------------|
A-12-12-12----------|
E----------14-12/5--|

G-----------------|
D-----------------|
A-12-12-12--------|
E----------14-12--|

G-------------------|
D-------------------|
A-12*-------12------|
E-----12*-14----14--|

G-----------------|
D-----------------|
A-12-12-------12--|
E-------12-14-----|

G--------------------|
D--------------------|
A-12-12-------12-----|
E-------12-14----14--|

G-----------------| x2
D-----------------|
A-12-12-12--------|
E----------14-12--|

G----------------------|
D-------------14-------|
A-12-12-12-------------|
E----------12----12/5--|
comments
print report bad tab
6 comments total. Showing first comments.
+1 reply
sr305dx wrote on March 11 2009, 09:56 pm

dude tht was really good pretty damn close. tab some more!

0 reply
rory.ocallaghan wrote on April 19 2010, 04:09 pm

lovely tab mate, just one thing that bothers me for the bass solo, in stead of 17 19 15 19 I thought it sounded better as 17 19 16 19. Please let me know what you think. ;)

+1 reply
murray1992 wrote on June 7 2010, 07:06 am

Yeah the solo should be more major sounding than that. I think it's this:


Solo
G---------------------19----19--| x18
D------------------17----16-----|
A-------------------------------|
E-55-5-0-2-5-5-2-0--------------|

G---------------------19----19----|
D------------------17----16----2--|
A---------------------------------|
E-55-5-0-2-5-5-2-0----------------|

I want to post or [tab]
guest
You may want to rate the tab now too:
select rating
Please do not post tabs as comments. Select "correction" instead!