Oops, an error
Loading. Please wait.

All Right Now Chords

version 2
version 2

Whole song

by Free
16,117 views 21 this week
1 commentread comment
1 2 3 4 5
worth learning
x 3
add to favorites
launch autoscroll
font size
0
reset
transpose
0
reset
display chords
guitar tuner
Autoscroll
slow
fast
+/-
esc
set tempo
stop
Help us to improve Ultimate-Guitar.com Take our survey!
×
ok. lets do this.

the guitar riff / verse goes like this ( at least this the power chord version)

 1 ----------------------------------------------------------------|
 2 ----------------------------------------------------------------|
 3 ---------7-----7-7-7-7------------------------------------------|
 4 ---7---7-7-7---7-7-7-7*-7---------------------------------------|
 5 ---7---7-5-7---5-5-5-5--7---------------------------------------|
 6 ---5---5---5------------5---------------------------------------|

*this part can be played a couple of ways. you can do 8 strums instead of 4, or 1 
of 4. also, you can play the riff differently where one part is up the neck. i think tht going 
and down the neck makes you look better. this is how
 1 -----------------------------------------------|
 2 -----------------------------------------------|
 3 ---------7-------------------------------------|
 4 ---7---7-7-7---12-12-12-12--(optional)--7------|
 5 ---7---7-5-7---12-12-12-12--slide down -7------|
 6 ---5---5---5---10-10-10-10--------------5------|

the chorus goes like this
 1 ------------------------------|
 2 ------------------------------|
 3 ----------7--7-7-7-7----------|
 4 --7-7-7-7-7--7-7-7-7-7--------|
 5 --7-7-7-7-5--5-5-5-5-7--------|
 6 --5-5-5-5------------5--------|

again, to add style, you can do this

 1 ---------------------------------------------|
 2 ---------------------------------------------|
 3 ---------------------------------------------|
 4 --7-7-7-7-12--12-12-12-11-9-7----------------|
 5 --7-7-7-7-12--12-12-12-11-9-7----------------|
 6 --5-5-5-5-10--10-10-10-9--7-5----------------|

there you go
 rock on
Suggest correction
Give kudos to tab author, rate the tab!
1 2 3 4 5
comments
print report bad tab
1 comment total.
0 reply
Dairybeat 1,734 wrote on January 2 2009, 09:25 am

Where are the Chords...!?

guest
You may want to rate the tab now too:
select rating
Wanna post a correction for this tab? Suggest correction