Oops, an error
Loading. Please wait.

All Right Now Bass Tab

version 3
version 3

Whole song

by Free
44,240 views 36 this week
1 commentread comment
1 2 3 4 5
x 7
add to favorites
launch autoscroll
font size
0
reset
guitar tuner
Autoscroll
slow
fast
+/-
esc
set tempo
stop
Help us to improve Ultimate-Guitar.com Take our survey!
×
Author
There is no bass in the verses

[FIRST CHORUS]
G--------------------------------------------------------------------------|
D-7-7-7----7-7-7-----7-7-7-------7-7-7------7--7-7-7---7-7-7----7-7-7------|
A---------------9-7-------9-7-9--------9-7-9----------------9-7------9-7/1-|
E--------------------------------------------------------------------------|

[SECOND CHORUS]
G----------------------------------------------------------------8/10-7/9------------|
D-7-7-7---7-7-7-----7-7-7-------7--7-----7---7-7-7---7--7/9-8/10----------7-7-7------|
A--------------9-7-------9-7-9------9-7-9--------------------------------------9-7/1-|
E------------------------------------------------------------------------------------|

[BRIDGE]
G---------------------7---7- PLAY 18 TIMES G-----| END WITH AN OPEN E ON
D-------------------5---4---               D-----| THE 18TH TIME
A---------------------------               A-----|
E-5-5-5-0-2-5-5-0-0---------               E--0--|

[THIRD CHORUS]

G-----------------------------------------------------------------------------|
D-7-7-7---7-7-7-----7-7-7-------7-7/15-15-15/7---7-7-7---7-7-7-----7-7-7------|
A--------------9-7-------9-7-9--------------------------------9-7-------9-7/1-|
E-----------------------------------------------------------------------------|

G-------------------------------------------------------------------------|
D-7-7-7---7-7-7-----7-7-7-------7--7-----7---7-7-7---7-7-7-----7-7-7------|
A--------------9-7-------9-7-9------9-7-9-----------------9-7-------9-7/1-|
E-------------------------------------------------------------------------|

G--------------------------------------------------------------------------------|
D-7-7-7---7-7-7-----7-7-7-------7-9-11-13/17/13---7-7-7---7-7-7-----7-7-7--------|
A--------------9-7-------9-7-9---------------------------------9-7-------9-7/1---|
E--------------------------------------------------------------------------------|

G-----------------------------------------------------------------------------|
D-7-7-7---7-7-7------7-7-7--------7-7-7-----7----7-7-7---7-7-7------7-7-7-----|
A--------------9-7--------9-7-9--------9-7-9------------------9-7--------7/1--|
E-----------------------------------------------------------------------------|

ALRIGHT, I HOPE THIS TAB HELPS.  HAVE FUN!



************************************

| /  Slide up

************************************
Suggest correction
comments
print report bad tab
1 comment total.
0 reply
sippie 10 Apr 25, 2012 04:50 PM

sweet thanks

guest
You may want to rate the tab now too:
select rating
Wanna post a correction for this tab? Suggest correction