Oops, an error
Loading. Please wait.

All Right Now Bass Tab

version 4
version 4

Whole song

by Free
9,246 views 12 this week
no commentswrite comment
1 2 3 4 5
1 last vote to show rating
add to favorites
launch autoscroll
font size
0
reset
guitar tuner
Autoscroll
slow
fast
+/-
esc
set tempo
stop
Help us to improve Ultimate-Guitar.com Take our survey!
×
Difficulty
novice
Alright now (g aolian / d dorian)

chorus
     
|--2-2-2------|-2-2-2-----|-2-2-------2-|----------|
|--------4-2--|-------4-2-|-----2-4-2---|-4-2-4-2--|
|-------------|-----------|-------------|----------|
|-------------|-----------|-------------|----------|

     
|--2-2-2------|-2-2-2-----|-2-2-------2-|-------------|
|--------4-2--|-------4-2-|-----2-4-2---|-4-2---------|
|-------------|-----------|-------------|------3------|
|-------------|-----------|-------------|-----------5-|


     
bridge style riff
|----------------|-----------------------|
|----------------|-----------------------|
|----------------|----5----------5-------|
|-5-5-0-2-55-2-0-|-3-----22-3-22----2----|

andy hutch. Rough and ready
Suggest correction
Give kudos to tab author, rate the tab!
1 2 3 4 5
comments
print report bad tab
guest
You may want to rate the tab now too:
select rating
Wanna post a correction for this tab? Suggest correction