Oops, an error
Loading. Please wait.

All Right Now Bass Tab

version 5
version 5

Whole song

by Free
3,286 views 1 this week
1 commentread comment
1 2 3 4 5
please rate
add to favorites
launch autoscroll
font size
0
reset
guitar tuner
Autoscroll
slow
fast
+/-
esc
set tempo
stop
Help us to improve Ultimate-Guitar.com Take our survey!
×
Author
Difficulty
intermediate
Artist: Free
Song: All Right Now

Tabber: Tom Millis (tommillis@live.co.uk)

Bass starts at first chorus.

Chorus 1:

G|-------------------------------------------------------------------------|
D|-------------------------------------------------------------------------|
A|-0-0-0-0-0-0-----0-0---0--0--0----0-0-0-0-0-0-----0-0---0-0--------------|
E|-------------202-----02-------202-------------202-----02-----------------|

Chorus 2:

G|-------------------------------------------------------------------------|
D|-------------------------------------------------------------------------|
A|-0-0-0-0-0-0-----0-0---0--0--0----0-0-0-0-0-0-----0-0---0-0--------------|
E|-------------202-----02-------202-------------202-----02-----------------|


Solo:

G|-----------------19----19-|
D|--------------17----16----|
A|-00-0---00----------------| x 18 (on the 18th follow with an open E)
E|-----20---20--------------|---(these are not 20's, 2 followed by open E)

Chorus 3: Play until the end of song

G|-------------------------------------------------------------------------|
D|-------------------------------------------------------------------------|
A|-0-0-0-0-0-0-----0-0---0--0--0----0-0-0-0-0-0-----0-0---0-0--------------|
E|-------------202-----02-------202-------------202-----02-----------------|
Suggest correction
Give kudos to tab author, rate the tab!
1 2 3 4 5
comments
print report bad tab
1 comment total.
0 reply
beatreebor 20 wrote on March 7 2014, 01:42 pm

not accurate

guest
You may want to rate the tab now too:
select rating
Wanna post a correction for this tab? Suggest correction