Oops, an error
Loading. Please wait.

All Right Now Tab

version 6
by Free
66,652 views 105 this week
11 commentsread comments
1 2 3 4 5
accurate
x 30
add to favorites
launch autoscroll
font size
0
reset
how to read this tab
guitar tuner
Autoscroll
slow
fast
+/-
esc
set tempo
stop
Help us to improve Ultimate-Guitar.com Take our survey!
×
Author
-------------------------------------------------------------------------------
                             All Right Now - Free
-------------------------------------------------------------------------------
Tabbed by: bonzo_lives
Email: ian_vigilantes@yahoo.com


Tuning: Standard

Main riff (varies slightly throughout)
e|----------------------------------|
B|-2--2-3-2---2-3-3-3-3-3-3-3-3-2---|
G|-2--2-2-2---2-2-2-2-2-2-2-2-2-2---|
D|-2--2-4-2---2-5-5-5-5-4-4-4-4-2---|
A|-0--0-0-0---0-0-0-0-0-0-0-0-0-0---|
E|----------------------------------|

Chorus
e|--------------------------|
B|--------------------------|
G|--9-9-9-----7---7-7-7-9---|
D|--7-7-7-----5---4-4-4-7---|
A|--0-0-0-9-7-0---5-5-5-0---|
E|--------------------------|

Solo (loads of fast Vibrato throughout the solo)
e|------------------------------------------0-0-0-0-0-0--0-0-0-0-0-0-------|
B|--------------------------------------3/5-5/7-7-7-7\5--5/7-7-7-7\5-------|
G|0h2--2/4--2/4--4-4\2-2---2/4-4-4\2-2-------------------------------------|
D--------------------------------------------------------------------------|
A|-------------------------------------------------------------------------|
E|-------------------------------------------------------------------------|

e|-----5-------------------------------------------------------------------|
B|--------------------/10------10-----10-----10------10-----10-12b14-------|
G|-2/4---4b6-2h4p2---------9h11---9h11---9h11---9h11---9h11----------------|
D|-------------------------------------------------------------------------|
A|-------------------------------------------------------------------------|
E|-------------------------------------------------------------------------|

e|-------------------------------------------------------------------------|
B|-----10-----10-----10-----10-----10-12b14-12b14-14b12p10---10-10---------|
G|-9h11---9h11---9h11---9h11---9h11------------------------11--------------|
D|-------------------------------------------------------------------------|
A|-------------------------------------------------------------------------|
E|-------------------------------------------------------------------------|

e|-------------------------------------------------------------------------|
B|-12b14-14-14-14b12p10----10-10---12b14-14-14-14b12p10---10-10------------|
G|----------------------11-----------------------------11------------------|
D|-------------------------------------------------------------------------|
A|-------------------------------------------------------------------------|
E|-------------------------------------------------------------------------|

e|-----17------17------17------17------17------17----20b22-22-22b20----17-17-|
B|17h20---17h20---17h20---17h20---17h20---20b22---17----------------20-------|
G|---------------------------------------------------------------------------|
D|---------------------------------------------------------------------------|
A|---------------------------------------------------------------------------|
E|---------------------------------------------------------------------------|

e|-----17------17------17------17------17------17----20b22-22-22b20----17-17-|
B|17h20---17h20---17h20---17h20---17h20---20b22---17----------------20-------|
G|---------------------------------------------------------------------------|
D|---------------------------------------------------------------------------|
A|---------------------------------------------------------------------------|
E|---------------------------------------------------------------------------|

e|-------------------------------------------------------------------------|
B|-20b22-20b22-20b22--19-19-17-17------------------------------------------|
G|-------------------------------------------------------------------------|
D|-------------------------------------------------------------------------|
A|-------------------------------------------------------------------------|
E|-------------------------------------------------------------------------|


| /  slide up
| \  slide down
| h  hammer-on
| p  pull-off
| ~  vibrato
| +  harmonic
| x  Mute note
============================================================================
Suggest correction
What's this?
You can suggest a correction to this tab. Community and Mods will review your correction and vote to approve or reject it.
comments
print report bad tab
11 comments total. Showing first comments. show 1 bad comment
0 reply
fdl 14 wrote on March 26 2006, 11:34 am

The other tab versions are OK but this one is much better. As far as I can tell its perfect. Thanks!

0 reply
Fret and Worry 129 wrote on May 25 2006, 06:48 am

f

guest
You may want to rate the tab now too:
select rating
Please do not post tabs as comments. Select "correction" instead!