Oops, an error
Loading. Please wait.

All Right Now Tab

version 7
by Free
17,027 views 3 this week
no commentswrite comment
1 2 3 4 5
x 7
add to favorites
launch autoscroll
font size
0
reset
how to read this tab
guitar tuner
Autoscroll
slow
fast
+/-
esc
set tempo
stop
Help us to improve Ultimate-Guitar.com Take our survey!
×
Author
Song: All Right Now
Artist: Free
Album: Fire and Water
Tuning: Standard


-Legend-
B - full bend
Bb - half bend
b- quarter bend
br - bend release
~~~ - vibrato 


Intro/Verses
|-0-----------0-------0--0-----------------0----|
|-2-------3---2-------3--3---3--3--3-------2----|
|-2-------2---2-------0--0---2--2--2-------2----|
|-2----4------2-------4--4---4--4--4-------2----|
|-0----0------0------------------------0---0----|
|-----------------------------------------------|


Chorus                ~~~~~~~~~                  ~~~~~~~~~~~
|-------------------------------------------------------------|
|-------------------------------------------------------------|
|-9----9----9---------7----------7----7----------9------------|
|-7----7----7---------5----------4----4----------7------------|
|--------------9---7------------------------------------------|
|-------------------------------------------------------------|


Solo                                       
|---------------------------------------------------------------------|
|---------------------------------------------------------------------|
|----17b----17b-----17b------19-17b--------17Bb—-19B--17-19-17--------|
|-19------19------19------19--------19-19-----------------------19-19-|
|---------------------------------------------------------------------|
|---------------------------------------------------------------------|
 

|------------------------------------------------------------------------|
|-------------------------------------------------------------------20B--|
|----17b-----17b-----17b-----17-17b---------17Bb—-19B--17—19B--17--------|
|-19------19------19------19---------19--19-----------------------19-----|
|------------------------------------------------------------------------|
|------------------------------------------------------------------------|

Now the bass does a little riff that looks like this for guitar

(2x)
|---------------------------------------------------------|
|---------------------------------------------------------|
|------------------------------------7------------7-------|
|------------------------------5------------4-------------|
|-0-0--0---------0---0------------0-----0------0-----0----|
|---------0---2---------2---0-----------------------------|


|--------------------------------------------0-------------------0---------|
|-------------------------------------/5-----5/7---7/5---/5------5/7---7/5-|
|-2-----2/4--2/4--4/2----2/4---4/2-----------------------------------------|
|--------------------------------------------------------------------------|
|--------------------------------------------------------------------------|
|--------------------------------------------------------------------------|

 Let the first 4 ring
|-----5----------------|
|-----------------/10--|
|--4------4br--2-------|
|----------------------|
|----------------------|
|----------------------|


|-----------------------------------------|
|------10------10------10-------10---12B--|
|-9h11----9h11----9h11-----9h11-----------|
|-----------------------------------------|
|-----------------------------------------|
|-----------------------------------------|


|-----------------------------------------|
|------10------10------10-------10---12B--|
|-9h11----9h11----9h11-----9h11-----------|
|-----------------------------------------|
|-----------------------------------------|
|-----------------------------------------|


|------------------------------------------------------------------|
|-12B--10-----10--------12B--10-----10--------12B--10-----10-------|
|---------11--------------------11--------------------11-----------|
|------------------------------------------------------------------|
|------------------------------------------------------------------|
|------------------------------------------------------------------|


|-------17-------17-------17-------17-------17--------|
|-17h20----17h20----17h20----17h20----17h20------20B--|
|-----------------------------------------------------|
|-----------------------------------------------------|
|-----------------------------------------------------|
|-----------------------------------------------------|


|-17----20B-17-20------17------17-|
|----17-----------20B-----20B-----|
|---------------------------------|
|---------------------------------|
|---------------------------------|
|---------------------------------|


|-------17-------17-------17-------17-------17--------|
|-17h20----17h20----17h20----17h20----17h20------20B--|
|-----------------------------------------------------|
|-----------------------------------------------------|
|-----------------------------------------------------|
|-----------------------------------------------------|


|-17----20B-17-20------17-----------------0-|
|----17-----------20B-----20B--19-19--17--2-|
|-----------------------------------------2-|
|-----------------------------------------2-|
|-----------------------------------------0-|
|-------------------------------------------|

after the solo you go back to the chorus, enjoy



Suggest correction
comments
print report bad tab
guest
You may want to rate the tab now too:
select rating
Wanna post a correction for this tab? Suggest correction