Oops, an error
Loading. Please wait.

Be My Friend Tab

version 1
version 1

Live

Whole song

Interactive

by Free
4,716 views 9 this week
no commentswrite comment
1 2 3 4 5
1 last vote to show rating
add to favorites
launch autoscroll
font size
0
reset
how to read this tab
guitar tuner
Autoscroll
slow
fast
+/-
esc
set tempo
stop
Help us to improve Ultimate-Guitar.com Take our survey!
×
Author
                                        
 Band: Free                                                                Legend: h - Hammer on
 Song: Be My Friend                                                                p - Pull off
 Album: (Only live YouTube, this one is from German Tv Outtake)                    /  - Slide
 Tuning: Standard (E)                                                              b  - Bend
 Scale: A# Dorian
 Tab Autor: Rensa                                                                  pb - Pre bend
 Guitarist: Paul Kossoff                                                           r - Release


Please rate if you have the time :D
                                    
                     
INTRO: (1x) [0:02 - 0:07] [Clean]
e|---------------------|
B|---------------------|
G|-6----6------------3-|
D|-6h8--6---6----6---5-|
A|----------6h8--6---6-|
E|---------------------|

Part 1: (5x) [0:10 - 0:30] [Clean]
e|-------------------6-6-------------|
B|---------6---------6-6---------8-8-|
G|---------6---------------------8-8-|
D|-6h8-8-8-8p6-6-6------------8------| 
A|-----------------------8/10--------|         
E|-----------------------------------|

Paul plays the upper one only on the first time.

e|---------------------6-------------|
B|-------------------6-6---------8-8-|
G|-6-----------------6-----------8-8-|
D|-6h8-8-8-8p6-6-6------------8------| 
A|-----------------------8/10--------|         
E|-----------------------------------|

Part 2: (1x) [0:31 - 0:34] [Clean]
e|-----------------------|
B|-----------------------|
G|-----------------------|
D|-6/8-8-8--8p6--6-6\3---|
A|-6/8-8-8--8p6------1-1-|
E|-----------------------|

Part 3: (1x) [0:35 - 0:39] [Clean]
e|-----------------------------------------------|
B|-----------------------------------------------|
G|-8----8--8----8-----8--8----8-----8--8-----8---|
D|-8h10-10-10---10h11-11-11---11p10-10-10p8--8-6-|
A|-----------------------------------------------|
E|-----------------------------------------------|

Part 4: (1x) [0:39 - 0:42] [Clean]
e|---------------------------|
B|---------------------------|
G|---------------------------|
D|-6h8-8-8--8p6-6-6--6/8-8-8-|
A|-6h8-8-8--8p6-6-6--6/8-8-8-|
E|---------------------------|

REPEAT: PART 1 (1x) [0:43 - 0:47] [Clean]
REPEAT: PART 2 (1x) [0:47 - 0:50] [Clean]
REPEAT: PART 3 (1x) [0:51 - 0:55] [Clean]
REPEAT: INTRO  (1x) [0:55 - 1:00] [Clean]
REPEAT: PART 1 (1x) [1:03 - 1:07] [Clean]
REPEAT: PART 2 (1x) [1:07 - 1:10] [Clean]
REPEAT: PART 3 (1x) [1:11 - 1:15] [Clean]

Part 5: (2x) [1:35 - 2:01] [Clean]
e|-6---6-6---------------------------|----------------|
B|-6---6-6---6--6-6------------------|----------------|
G|-6---6-6---6--6-6------6--6---6--6-|----------------|
D|-8---8-8---6--6-6------5--5---4--4-|---6/8-8-8-8-8--|
A|-----------------------6--6---6--6-|-8-----------8--|
E|-----------------------------------|----------------|

REPEAT: PART 1 (4x) [2:01 - 2:21] [Clean]
REPEAT: PART 2 (1x) [2:21 - 2:24] [Clean]
REPEAT: PART 3 (1x) [2:25 - 2:28] [Clean]
REPEAT: PART 4 (1x) [2:29 - 2:31] [Clean]
REPEAT: PART 1 (4x) [2:33 - 2:36] [Clean]
REPEAT: PART 2 (1x) [2:36 - 2:40] [Clean]
REPEAT: PART 4 (1x) [2:40 - 2:44] [Clean]
REPEAT: PART 3 (1x) [2:44 - 2:47] [Clean]
REPEAT: PART 5 (1x) [2:48 - 3:14] [Clean]

INTRO dif (1x) [3:15 - 3:18] [Clean]
e|-----------------|
B|-----------------|
G|-6----6--------6-|
D|-6h8--6---6----6-|
A|----------6h8----|
E|-----------------|

REPEAT: PART 5 (2x)  [3:19 - 3:47] [Clean]

The SOLO: [3:49 - 4:04] [Clean]
e|--------------------------------------------------------------|
B|--------------------------------------------------6-6---------|
G|-8/10~--8/10~--10-10\8-6-5-6-6/8~-8~--8b10r8-6-8~-8-8-6-------|
D|--------------------------------------------------------8-6-8-|
A|--------------------------------------------------------------|
E|--------------------------------------------------------------|

[3:49 - 4:07] [Clean]
e|------------------------------------------------------------------|
B|-6-6---------------9--------------------------------------9-------|
G|-8-8-6--------8b10---8b10r8---6-8/10\8\6-5-6-6/8~--6-8b10---8b10~-|
D|-------8-6-8------------------------------------------------------|
A|------------------------------------------------------------------|
E|------------------------------------------------------------------|

[4:07 - 4:17] [Clean]
e|---------------------------------------------------------------------------|
B|------9---------------------------------6----------------------------------|
G|-pb10---pb10r8-8b10~-pb10-pb10r8-8-6-8--6h8-8p6----------6-6--6-6----6---6-|
D|------------------------------------------------8-8-6-8~-6-6--6-6--6-6-6-6-|
A|---------------------------------------------------------------------------|
E|---------------------------------------------------------------------------|

[4:17 - 4:25] [Clean]
e|----------------------------------------------------------------|
B|---------------9---9--------8-6--------8---8--8-6---------------|
G|-8/10~-8-8b10----pb10r8-8-6-8-6--------8-qb8r-8-6-----------6---|
D|--------------------------------8-6-8~-------------6~--6-8~---8-|
A|----------------------------------------------------------------|
E|----------------------------------------------------------------|

[4:25 - 4:36] [Clean]
e|-------------|---------------------9-----------------------------|
B|------6-9----|-9------9-9-----9b11--11r9--11-9-------------------|
G|-8b10--------|---8b10~--10r8~------------------8/10--6-----------|
D|--------(8x)-|------------------------------------------8-6-8-8~-|
A|-------------|---------------------------------------------------|
E|-------------|---------------------------------------------------|

[4:36 - 4:46] [Clean]
e|----------------------------------------------------------------------|
B|-6--------6---8-------------------------------------------------------|
G|-6-6------6-qb8r-6-8-6-8~-6h8p6-5-6/8--6-10/8\-6h8p6p5---6/8\6--------|
D|---8-6-8~------------------------------------------------------8-6-8~-|
A|----------------------------------------------------------------------|
E|----------------------------------------------------------------------|

REPEAT: PART 5 (2x)  [4:47 - 5:12] [Clean]

The END: [5:12 - 5:27] [Clean]
e|----------------------6-|
B|----------------------6-|
G|-6----6-----------3---6-|
D|-6h8--6---6---6---5---8-|
A|----------6h8-6---6-----|
E|------------------------|

* If a note is pre-bent like pb10 then you bend it from 8b10.

This is my first tab, so please don't be too harsh on me :D.
I loved this song, but found no tab or lesson for it. So i
made one for myself and decided to post it here :D Hope u enjoy it!
Suggest correction
Give kudos to tab author, rate the tab!
1 2 3 4 5
comments
print report bad tab
guest
You may want to rate the tab now too:
select rating
Wanna post a correction for this tab? Suggest correction