Oops, an error
Loading. Please wait.

Fire And Water tab

version 4
version 4

Whole song

Interactive

by Free
628 views 9 this week
no commentswrite comment
1 2 3 4 5
2 more votes to show rating
add to favorites
×
Save as Personal and add changes to this tab that will be seen only by you. Learn more ›
×
You can save this tab as Personal to edit and correct it or add notes. All changes will be seen only by you. Learn more »
launch autoscroll
font size
0
reset
how to read this tab
guitar tuner
backing track
0:00
0:00
edit
Autoscroll
slow
fast
+/-
esc
set tempo
stop
Author
Difficulty
FIRE AND WATER

As recorded by Free
(From the 1970 Album FIRE AND WATER)

Words and Music by Paul Rodgers & Andy Fraser

Transcribed by Slowhand


Gtr I (E A D G B E) - 'Paul Kossoff - Electric Guitar'
Gtr II (E A D G B E) - 'Paul Kossoff - Electric Guitar'


 Intro
  Q=68
            D5/AA5   DsusD          A5   DsusD5         A5      D5/A  A5
 4/4
  Gtr I (El. Gtr. w/ light dist.)
  H    Q  E E   H     E.  S  +Q     H     E.  S  +Q     H    E. S +E  E
|-------------|-------------------|-------------------|-----------------||
|-------------|-------------------|-------------------|-----------------||
|-----------7-|-9----12--11-(11)--|-9----12--14-(14)--|-9----9--7-(7)---||
|-----------7-|-7-----0---0--(0)--|-7-----0---0--(0)--|-7----7--7-(7)-7-||
|-----------0-|-0----10---9--(9)--|-0----10--12-(12)--|-0----0--0-(0)-7-||
|-------------|-------------------|-------------------|---------------5-||


 1st Verse
    B5                  E5       B5
  Gtrs I, II
  S S E Q  S S E Q    S S E Q  S S E Q
|-------------------|-------------------|
|-------------------|-------------------|
|-------------------|-------------------|
|-------------------|-7S9-9-------------|
|-7S9-9----7S9-9----|-5S7-7----7S9-9----|
|-5S7-7----5S7-7----|----------5S7-7----|


                        E5         D5    A5
  S S E Q  S S E Q    S S E Q  E S S +E  e
|-------------------|----------------------|
|-------------------|----------------------|
|-------------------|----------------------|
|-------------------|-7S9-9----9---7-(7)---|
|-7S9-9----7S9-9----|-5S7-7----7---5-(5)-7-|
|-5S7-7----5S7-7----|--------------------5-|


    B5                  E5       B5
  S S E Q  S S E Q    S S E Q  S S E Q
|-------------------|-------------------|
|-------------------|-------------------|
|-------------------|-------------------|
|-------------------|-7S9-9-------------|
|-7S9-9----7S9-9----|-5S7-7----7S9-9----|
|-5S7-7----5S7-7----|----------5S7-7----|


                        E5         D5    A5
  S S E Q  S S E Q    S S E Q  E S S +E  e
|-------------------|----------------------||
|-------------------|----------------------||
|-------------------|----------------------||
|-------------------|-7S9-9----9---7-(7)-2-||
|-7S9-9----7S9-9----|-5S7-7----7---5-(5)-0-||
|-5S7-7----5S7-7----|----------------------||


 Chorus
  B5      B5/D      B5/A    B5        D    A5     E5   B5     E5  D5    A/E7sus4
  E E E E E E E E   E E E E E E E E   H    H      H    H      E S S +E  e H
|-----------------|-----------------|-2---------|-0---------|------------------|
|-----------------|-----------------|-3---------|-0---------|-------------3----|
|-4---4---4---4---|-4---4---4---4---|-2----2----|-9---------|-------------2----|
|-4---4---4---4---|-4---4---4---4---|-0----2----|-9----9----|-9---7-(7)-7-2----|
|-2---2---5---5---|-0---0---2---2---|------0----|-7----9----|-7---5-(5)-4-2----|
|-----------------|-----------------|-----------|------7----|-------------0----|


           2nd Verse
              B5                  E5       B5
 2/4       4/4
  +H        S S E Q  S S E Q    S S E Q  S S E Q    S S E Q  S S E Q
|--------||-------------------|-------------------|--------------------|
|-(3)----||-------------------|-------------------|--------------------|
|-(2)----||-------------------|-------------------|--------------------|
|-(2)----||-------------------|-7S9-9-------------|--------------------|
|-(2)----||-7S9-9----7S9-9----|-5S7-7----7S9-9----|-7S9-9----7S9-9-----|
|-(0)----||-5S7-7----5S7-7----|----------5S7-7----|-5S7-7----5S7-7-----|


                         Chorus
    E5         D5    A5   B5      B5/D
  S S E Q  E S S +E  e    E E E E E E E E
|----------------------||-----------------|
|----------------------||-----------------|
|----------------------||-4---4---4---4---|
|-7S9-9----9---7-(7)---||-4---4---4---4---|
|-5S7-7----7---5-(5)-7-||-2---2---5---5---|
|--------------------5-||-----------------|


  B5/A    B5        D    A5     E5   B5
  E E E E E E E E   H    H      H    H
|-----------------|-2---------|-0---------|
|-----------------|-3---------|-0---------|
|-4---4---4---4---|-2----2----|-9---------|
|-4---4---4---4---|-0----2----|-9----9----|
|-0---0---2---2---|------0----|-7----9----|
|-----------------|-----------|------7----|


                              Guitar Solo
  E5  D5    A/E5               B5
                    2/4       4/4
  E S S +E  e H      +H        Q   E  S  S      +E    Q.
|------------------|--------||--------------------------------|
|------------------|--------||----10-12-12b15==(12)r-12b15====|
|------------------|--------||--------------------------------|
|-9---7-(7)-7------|--------||--------------------------------|
|-7---5-(5)-4-2----|-(2)----||--------------------------------|
|-------------0----|-(0)----||--------------------------------|
|
|                           Gtr II (El. Gtr. w/ light dist.)
| W                   W        W
|------------------|--------||--------------------------------|
|------------------|--------||--------------------------------|
|------------------|--------||--------------------------------|
|------------------|--------||-9------------------------------|
|------------------|--------||-9------------------------------|
|------------------|--------||-7------------------------------|


  E5                         B5
   +H      S  S S  S  +Q      +Q   Q  E.   S     +E   E
|--------------------------|----------------------------------|
|-(12)r------10p9----------|----------------------------------|
|-----------------11-(11)--|-(11)-----9b11-9b11==(9)r-9b11====|
|--------------------------|----------------------------------|
|--------------------------|----------------------------------|
|--------------------------|----------------------------------|
|
|   W                          W
|--------------------------|----------------------------------|
|--------------------------|----------------------------------|
|---9----------------------|----------------------------------|
|---9----------------------|---9------------------------------|
|---7----------------------|---9------------------------------|
|---0----------------------|---7------------------------------|


  E5                              B5
                                            ~~~~~~
  +H     +S   S S +S   S E.       Q  E S  S H
|-------------------------------|----------------|
|------------10-------10--------|--------10------|
|-(9)----(9)----9r(9)----9pb11==|=9r=9-7--9------|
|-------------------------------|-----------9----|
|-------------------------------|----------------|
|-------------------------------|----------------|
|
|  W                              W
|-------------------------------|----------------|
|-------------------------------|----------------|
|--9----------------------------|-4--------------|
|--9----------------------------|-4--------------|
|--7----------------------------|-2--------------|
|--0----------------------------|----------------|


  E5                                        B5
 ~~~~~                                        ~~~~
  +H     +S  S  E      +S   T T  S  S        +W
|--------------10b12==(10)r10p7-10--------|---------|
|------------7---------------------10b12==|=(10)----|
|-----------------------------------------|---------|
|-(9)----(9)------------------------------|---------|
|-----------------------------------------|---------|
|-----------------------------------------|---------|
|
|  W                                          W
|-----------------------------------------|---------|
|-----------------------------------------|---------|
|-----------------------------------------|---4-----|
|--2--------------------------------------|---4-----|
|--2--------------------------------------|---2-----|
|--0--------------------------------------|---------|


  E5                           B5
    ~~~~
   +Q    +E   S  S  +Q.    E   Q  +Q       +Q     E E
|------------10--------------|------------------------|
|-(10)--(10)----10-(10)r==10-|-9--(9)b10===(9)r--10---|
|----------------------------|-9--(9)b11===(9)r-------|
|----------------------------|------------------------|
|----------------------------|------------------------|
|----------------------------|------------------------|
|
|   W                          W
|----------------------------|------------------------|
|----------------------------|------------------------|
|---9------------------------|-4----------------------|
|---9------------------------|-4----------------------|
|---7------------------------|-2----------------------|
|---0------------------------|------------------------|


  E5                                                          B5
                                                                     ~~~~~~~~
  Q       a  +E..    +T  +E      +S  +S      +S  +E     +S    S S E +Q   +H
|-----------------------------------------------------------|-------------------|
|-9b10===(9)r(9)b10==(9)r(9)b10==(9)r(9)b10==(9)r(9)b11-(9)-|-------------------|
|-----------------------------------------------------------|-7h9---------------|
|-----------------------------------------------------------|-----9-(9)--(9)----|
|-----------------------------------------------------------|-------------------|
|-----------------------------------------------------------|-------------------|
|
| W                                                           W
|-----------------------------------------------------------|-------------------|
|-----------------------------------------------------------|-------------------|
|-----------------------------------------------------------|-4-----------------|
|-2---------------------------------------------------------|-4-----------------|
|-2---------------------------------------------------------|-2-----------------|
|-0---------------------------------------------------------|-------------------|


  E5
  S  E.  S  S E  Q       +S    S  S     +S
|-----------------------------17------------|
|-------15------17b19===(17)r----17b19-(17)-|
|---16-----16-------------------------------|
|-------------------------------------------|
|-------------------------------------------|
|-------------------------------------------|
|
| W
|-------------------------------------------|
|-------------------------------------------|
|-9-----------------------------------------|
|-9-----------------------------------------|
|-7-----------------------------------------|
|-0-----------------------------------------|


  B5                                                 E5
   E.    S      +E    E      +S    E.  S.  T  S  S    +E   S  S  Q  S  S  S  S  E     s  S
|-17----17-----(17)--17-----(17)-------------------|---------------------------------17---------|
|-17b19-17b19==(17)r-17b19==(17)r-17--17--17p15-17-|-(17)-15s14----------15----17b19----17b19===|
|--------------------------------------------------|------------16----16----16------------------|
|--------------------------------------------------|--------------------------------------------|
|--------------------------------------------------|--------------------------------------------|
|--------------------------------------------------|--------------------------------------------|
|
|  W                                                   W
|--------------------------------------------------|--------------------------------------------|
|--------------------------------------------------|--------------------------------------------|
|--4-----------------------------------------------|--------------------------------------------|
|--4-----------------------------------------------|---2----------------------------------------|
|--2-----------------------------------------------|---2----------------------------------------|
|--------------------------------------------------|---0----------------------------------------|


  B5
                           ~~
            |--3--|
   +S    S  S  S  S  S  S  E  S      E. Q
|-------17---------------------------------|
|-(17)r----17p15----17-15----15b15.5-------|
|----------------16-------16---------------|
|------------------------------------------|
|------------------------------------------|
|------------------------------------------|
|
|   W
|------------------------------------------|
|------------------------------------------|
|---4--------------------------------------|
|---4--------------------------------------|
|---2--------------------------------------|
|------------------------------------------|


  E5
                                                                                                  ~~~~~
   S     +S   S  S     +E   S  S     +S   S  S      +S   +S    E.      E.    S      +E    E      +H
|------------17------------17------------17-------------------17----|-17----17-----(17)--17-----(17)-----||
|-17b19-(17)----17b19-(17)----17b19-(17)----17b19==(17)-(17)r-17b19-|-17b19-17b19==(17)r-17b19==(17)r----||
|-------------------------------------------------------------------|------------------------------------||
|-------------------------------------------------------------------|------------------------------------||
|-------------------------------------------------------------------|------------------------------------||
|-------------------------------------------------------------------|------------------------------------||
|
|  W                                                                  +W
|-------------------------------------------------------------------|------------------------------------||
|-------------------------------------------------------------------|------------------------------------||
|-------------------------------------------------------------------|------------------------------------||
|--2----------------------------------------------------------------|-(2)--------------------------------||
|--2----------------------------------------------------------------|-(2)--------------------------------||
|--0----------------------------------------------------------------|-(0)--------------------------------||


 3rd Verse
    B5                  E5       B5
  Gtrs I, II
  S S E Q  S S E Q    S S E Q  S S E Q
|-------------------|-------------------|
|-------------------|-------------------|
|-------------------|-------------------|
|-------------------|-7S9-9-------------|
|-7S9-9----7S9-9----|-5S7-7----7S9-9----|
|-5S7-7----5S7-7----|----------5S7-7----|


                        E5         D5    A5
  S S E Q  S S E Q    S S E Q  E S S +E  e
|-------------------|----------------------|
|-------------------|----------------------|
|-------------------|----------------------|
|-------------------|-7S9-9----9---7-(7)-2-|
|-7S9-9----7S9-9----|-5S7-7----7---5-(5)-0-|
|-5S7-7----5S7-7----|----------------------|


 Chorus
  B5      B5/D      B5/A    B5        D    A5     E5       D5/E
  E E E E E E E E   E E E E E E E E   H    H      H    +S  E. +Q
|-----------------|-----------------|-2---------|-0----(0)----------|
|-----------------|-----------------|-3---------|-0----(0)----------|
|-4---4---4---4---|-4---4---4---4---|-2----2----|-9----(9)-7--(7)---|
|-4---4---4---4---|-4---4---4---4---|-0----2----|-9----(9)-7--(7)---|
|-2---2---5---5---|-0---0---2---2---|------0----|-7----(7)-7--(7)---|
|-----------------|-----------------|-----------|-------------------|


  B5      B5/D      B5/A    B5        D    A5     E5   B5
  E E E E E E E E   E E E E E E E E   H    H      H    H
|-----------------|-----------------|-2---------|-0---------|
|-----------------|-----------------|-3---------|-0---------|
|-4---4---4---4---|-4---4---4---4---|-2----2----|-9---------|
|-4---4---4---4---|-4---4---4---4---|-0----2----|-9----9----|
|-2---2---5---5---|-0---0---2---2---|------0----|-7----9----|
|-----------------|-----------------|-----------|------7----|


  E5  D5    A/E7sus4
                    2/4      4/4
  E S S +E  e H      +H       +S  E. +H.        +S  E. +H.
|------------------|--------|-----------------|---------------|
|-------------3----|-(3)----|-(3)-3--(3)------|-(3)-3--(3)----|
|-------------2----|-(2)----|-(2)-2--(2)------|-(2)-2--(2)----|
|-9---7-(7)-7-2----|-(2)----|-(2)-2--(2)------|-(2)-2--(2)----|
|-7---5-(5)-4-2----|-(2)----|-(2)-2--(2)------|-(2)-2--(2)----|
|-------------0----|-(0)----|-(0)-0--(0)------|-(0)-0--(0)----|


                           Outro
                            N.C.
  +W           W            W          W     3x
|------------|----------||-----------|-------||
|-(3)--------|----------||o----------|------o||
|-(2)--------|----------||-----------|-------||
|-(2)--------|----------||-----------|-------||
|-(2)--------|----------||o----------|------o||
|-(0)--------|----------||-----------|-------||


Duration Legend
---------------
W - whole; H - half; Q - quarter; E - 8th; S - 16th; T - 32nd; X - 64th; a - acciaccatura
+ - note tied to previous; . - note dotted; .. - note double dotted
Uncapitalized letters represent notes that are staccato (1/2 duration)
Irregular groupings are notated above the duration line
Duration letters will always appear directly above the note/fret number it represents the
duration for.  Duration letters with no fret number below them represent rests.  Multi-
bar rests are notated in the form Wxn, where n is the number of bars to rest for.  Low
melody durations appear below the staff

Tablature Legend
----------------
 h   - hammer-on
 p   - pull-off
 b   - bend
 pb  - pre-bend
 r   - bend release (if no number after the r, then release immediately)
 /\  - slide into or out of (from/to "nowhere")
 s   - legato slide
 S   - shift slide
  - natural harmonic
[n]  - artificial harmonic
n(n) - tapped harmonic
 ~   - vibrato
 tr  - trill
 T   - tap
 TP  - trem. picking
 PM  - palm muting
\n/  - tremolo bar dip; n = amount to dip
 \n  - tremolo bar down
 n/  - tremolo bar up
/n\  - tremolo bar inverted dip
 =   - hold bend; also acts as connecting device for hammers/pulls
 <>  - volume swell (louder/softer)
 x   - on rhythm slash represents muted slash
 o   - on rhythm slash represents single note slash

Misc Legend
-----------
 |  - bar
||  - double bar
||o - repeat start
o|| - repeat end
*|  - double bar (ending)
 :  - bar (freetime)
 $  - Segno
 &  - Coda
Tempo markers -  = BPM(8/16=s8/s16), where s8 = swing 8ths, s16 = swing 16ths






Every single day, I got a heartache comin' my way
I don't wanna say goodbye
Baby but look at the tears in my eye
I don't wanna say goodbye
Mama but look at the way you made me cry
Every way that's nice
You show you've got a heart that's made of ice

And I know

Fire and water must have made you their daughter
You've got what it takes, to make a poor man's heart break
A poor mans heart break

Baby you turn me on
But as quick as a flash your love is gone
Baby I'm gonna leave you now
But I'm gonna try to make you grieve somehow

Fire and water must have made you their daughter
You've got what it takes to make a poor man's heart break
A poor man's heart break
And my heart is breakin' too

(ahh yeah)

(alright)

I don't wanna say goodbye baby
But look at the tears you made me cry
Every way that's nice
You show you've got a heart that's made of ice
And I know

Fire and water must have made you their daughter
You've got what it takes to make a poor mans heart break

Fire, fire and water must have made you their daughter
Baby you've got what it takes to make a poor man's heart break
Heart break

Baby and my heart is breakin'
Ohh my heart is breakin'
Ohh listen

            
            
Suggest correction
Creating personal tab
Creating personal tab
You can edit any tab online and save it as your Personal.

You can edit, replace or remove any tab part or add personal notes – all changes will be seen only by you.

Personal tabs can be accessed anytime from any device, even offline.
Learn more »
Give kudos to tab author, rate the tab!
1 2 3 4 5
comments
print report bad tab
guest
You may want to rate the tab now too:
select rating
Wanna post a correction for this tab? Suggest correction