Oops, an error
Loading. Please wait.

Mr Big Bass

version 1
version 1

Whole song

Interactive

15,471 views 27 this week
1 commentread comment
1 2 3 4 5
1 last vote to show rating
add to favorites
launch autoscroll
font size
0
reset
guitar tuner
backing track
0:00
0:00
×
Best way to learn
"Mr Big"
Autoscroll
slow
fast
+/-
esc
set tempo
stop
[Verse] 
"I work hard every day"...

G|------12\------7p6h7p6h7---|
D|--2---------2--------------|
A|---2---------2-------------|
E|----0---------0------------|

[Chorus] 
"Oh Mr Big"...      "Cause For You"...
G|--9--4-----------------9---9--4---------------|
D|---------------0-0-2--------------------0-2---|
A|--7--2-2-0-0-2------2------7--2-2-0-0-2----2--|
E|---------------------0----------------------0-|  (back into verse.)

[Bass Solo]
G|---------------------|2/9---------------------------9---9---7-7-7--|
D|-2-------2-----------|---------------2---2-2-4-4-7-----------------|
A|-------2---5-4---2---|-------2-4-4-2---5---------------------------|
E|---0-4---------------|---0-0-------------------------0---0---------|

G|-6-6-6---------|9---9-------------|------------------------------|
D|-------9-9-9-9-|------------------|------------6-6-6-7-7-7-9-9-9-|
A|---------------|--------5-4-4-2---|7-7-7-9-9-9-------------------|
E|---------------|--0---0---------3-|------------------------------|

G|-6-6-7-7-7-9-9-9-11-11-11-12-12-12-14-13--14-13-----------------------|
D|----------------------------------------14-----14-12-11-9-7-6---------|
A|--------------------------------------------------------------7-------|
E|----------------------------------------------------------------7-7-9-|

G|---------------------------------------------9-----9-7-7-6-6-|
D|-------------------------------------2-4-7-9---9-------------|
A|-7-7-7-5-5-5---------7-7-------2-4-4-------------7-----------|
E|-------------9-9-7-9-----0-4-4-------------------------------|

G|-------------------------------6-----------6-9-9-6---9-------|
D|-9-7-7-6-----------------6-9-9---9-9-7-7-9---------9---9-----|
A|---------7-----2-2-4---7---------------------------------7---|
E|-----------0-4---------------------------------------------0-|

G|------------------------9-9-9-9-9-9-9-9-9---------------------|
D|--------------------6-9-------------------9-11--------6-9-9-9-|
A|------7-------2-4-7---------------------------7-----2---------|
E|0-4-7---7-0-4-----------------------------------0-4-----------|

G|--9-7-11-14-14-16-17-19-18-19-18-19-21-19-21-19-21-19-21-19-21-|
D|11-------------------------------------------------------------|
A|---------------------------------------------------------------|
E|---------------------------------------------------------------|

G|-19-21-19-18-18-16-16-1413------------------------9--7--9--7-|
D|--------------------------14-14-------------------9--7--9--7-|
A|-------------------------------14-----5--4--2-----7--5--7--5-|
E|---------------------------------12-0------------------------|



************************************

| h  Hammer-on
| p  Pull-off
| \  Slide down
| /  Slide up

************************************
Suggest correction
Give kudos to tab author, rate the tab!
1 2 3 4 5
comments
print report bad tab
1 comment total.
-2 reply
michael_bryant 202 Mar 12, 2005 07:00 PM

This is the same as the tab on OLGA, directtabs, Fretplay and Guitarists network!!!

guest
You may want to rate the tab now too:
select rating
Wanna post a correction for this tab? Suggest correction