Oops, an error
Loading. Please wait.

Mr Big Live Tab

by Free
989 views 9 this week
no commentswrite comment
1 2 3 4 5
1 last vote to show rating
add to favorites
launch autoscroll
font size
0
reset
how to read this tab
guitar tuner
Autoscroll
slow
fast
+/-
esc
set tempo
stop
Help us to improve Ultimate-Guitar.com Take our survey!
×
Author
Difficulty
intermediate
This is my first tab so there might be some mistakes
it's the solo from my favorite live performance by Free  here is the link:
http://www.youtube.com/watch?v=_FhCilozomo

e------------------------------------------------------------------|
B------------------------------------------------------------------|
G------------------------------------------------------------------|
D----------------------------------------------12--12h14--14--12---|
A----7---7----9-----9/10/12----/14--------14-----------------------|
E------------------------------------------------------------------|


---------------------------------------------------------------|
---------------------------------------------------------------|
-------------------------9b11----9b11----------(11)r9-7h9--9---|
-12\9-\7----7h9----7h9-----------------------------------------|
---------------------------------------------------------------|
---------------------------------------------------------------|


-----------------------------------------------------|
-----------15----------------------------------------|
----14b16-----14b16---(0)-12--14---12h14---9---------|
-----------------------------------------------------|
-----------------------------------------------------|
-----------------------------------------------------|


----15b17--(17)r15----12-15-12-----12---------15---------------|
-12-----------------------------------15b17-------15b17--------|
---------------------------------------------------------------|
---------------------------------------------------------------|
---------------------------------------------------------------|
---------------------------------------------------------------|


--------12---12-----------------------------------------------------------|
-15b17--12---15p12--(12)--(12)--------------------------------------------|
---------------------14----12---14--12--14b16---------12\11--12\11---9----|
--------------------------------------------------------------------------|
--------------------------------------------------------------------------|
--------------------------------------------------------------------------|


-12--15b17-----12--12-15b17-----12--12--15b17---12--12--15b17----12--12--15b17--(17)r15h12-1515--12----|
-------------------------------------------------------------------------------------------------------|
-------------------------------------------------------------------------------------------------------|
-------------------------------------------------------------------------------------------------------|
-------------------------------------------------------------------------------------------------------|
-------------------------------------------------------------------------------------------------------|


----------------------------------------------------|
---15b17--15b17-----15b17--15b17-----15b17---15b17--|
----------------------------------------------------|
----------------------------------------------------|
----------------------------------------------------|
----------------------------------------------------|


----------------------------------------------------------------------------|
-12--12------12--12-----12--------------12-12--12---------------------------|
-12--12------12--14b16--14b16--12h14p12-14-12--14----12h14------- 12h14p12--|
---------14------------------------------------------------14---------------|
----------------------------------------------------------------------------|
----------------------------------------------------------------------------|

---------------------------------------------------------|
----17b20--17b20--17b20--17b20--(20)r17--15-17-17--------|
---------------------------------------------------------|
---------------------------------------------------------|
---------------------------------------------------------|
---------------------------------------------------------|

----------15-15----------------------------------------------------------------------------|
--17b20--------17b20--17b20-(20)r17--15-17--17b20-------17b20--17b20--(20)r17--15-17-17----|
-------------------------------------------------------------------------------------------|
-------------------------------------------------------------------------------------------|
-------------------------------------------------------------------------------------------|
-------------------------------------------------------------------------------------------|


-----------------17b19---17b19---17b19---17b19---17b19---17b19---17b19---17b19--(19)r17--15-17-15-----|
---17p(0)--------------------------------------------------------------------------------------17-----|
------------------------------------------------------------------------------------------------------|
------------------------------------------------------------------------------------------------------|
------------------------------------------------------------------------------------------------------|
------------------------------------------------------------------------------------------------------|


-------------------------------------------------------------------|
-(0)--------15-------------------------------12----------12--------|
-(0)--12/16----16p14\12-14p12-----12-12-12---12h14p12----14p12-----|
------------------------------14--12-14-14-------------------------|
-------------------------------------------------------------------|
-------------------------------------------------------------------|

---------15--------15--------15--------15--------15--------15--------15-----------------------|
---15b17-----15b17-----15b17-----15b17-----15b17-----15b17-----15b17------15b17---(17)\-------|
----------------------------------------------------------------------------------------------|
----------------------------------------------------------------------------------------------|
----------------------------------------------------------------------------------------------|
----------------------------------------------------------------------------------------------|


don't forget to use a lot of heavy vibrato
Suggest correction
Give kudos to tab author, rate the tab!
1 2 3 4 5
comments
print report bad tab
guest
You may want to rate the tab now too:
select rating
Wanna post a correction for this tab? Suggest correction