Oops, an error
Loading. Please wait.

Mr Big Tab

version 1
version 1

Whole song

Interactive

by Free
30,510 views 48 this week
4 commentsread comments
1 2 3 4 5
x 15
add to favorites
launch autoscroll
font size
0
reset
how to read this tab
guitar tuner
Autoscroll
slow
fast
+/-
esc
set tempo
stop
Help us to improve Ultimate-Guitar.com Take our survey!
×
[Intro]
E|---------------------------------------------------------|
B|-------------------8-------------------------8--8--------|
G|-------------------7-------------------------7--7--------|
D|-------------------6-------------------------6--6--------|
A|------0h2----------7------------0h2----------7--7--------|
E|-----------0-------------------------0-------------------|

[Verse]
When Bass starts play this. Bass starts After 2 of the Above riff
E|---------------------------------------------------------|
B|-------------------8-------------------------8-----------|
G|-------------------7-------------------------7-----------|
D|-------------------6-------------------------6-----------|
A|------0h2----------7------------0h2----------7-----------|
E|-----------0-------------------------0-------------------|

[Chorus]
(heavy picking)
E|---------------------------------------------------------|
B|-----------------------------------------------8---------|
G|------9----------------------------------------7---------|
D|------9------9---------------------------------6---------|
A|------7------9-------7--7--9--7---7--9--7------7---------|
E|-------------7-------5--5--5--5---5--5--5----------------|

(play verse then chorus Again)

[Guitar Solo]
(the solo is in E so it's pretty easy to ADD to)
E|-----------------------------------------|
B|----------7h8p7--------------------------|
G|----9~-------------9~--9~---------9~-----|
D|-----------------------------------------|
A|-----------------------------------------|
E|-----------------------------------------|

E|------------------------------------10-------------------|
B|------8----10B---r8---8h10~------------10----8h10Br~-----|
G|----9---9---------------------------------9--------------|
D|---------------------------------------------------------|
A|---------------------------------------------------------|
E|---------------------------------------------------------|

E|-----------------------------------------------|
B|----8h10~-----8p7---------7~----7h8-7----------|
G|------------------9~-------------------9~------|
D|-----------------------------------------------|
A|-----------------------------------------------|
E|-----------------------------------------------|

E|---------10-----------------------15B~-----15B-----12--15-------|
B|---10B~-----r10----8h10--------12-------12----------------15B~--|
G|------------------------9~--------------------------------------|
D|----------------------------------------------------------------|
A|----------------------------------------------------------------|
E|----------------------------------------------------------------|

E|-----------------------15---15---15---15---15---15---15---15------|
B|-15B-15B-15B-15B-15B-----15B--15B--15B--15B--15B--15B--15B—-15B~/-|
G|------------------------------------------------------------------|
D|------------------------------------------------------------------|
A|------------------------------------------------------------------|
E|------------------------------------------------------------------|

[Bass Solo] 
(play this heaps of times During the Bass solo)
E|-----------------------------------------|
B|-----------------------------------------|
G|----9----------7----------9----------7---|
D|----9----------7----------9----------7---|
A|----7----------5----------7----------5---|
E|-----------------------------------------|

(Drums & Guitar slowly Build up And riff changes to)
E|------------------------------------------------------------------|
B|------------------------------------------------------------------|
G|---9---9---9---9---7---7---7---7---9---9---9---9---7---7---7---7--|
D|---9---9---9---9---7---7---7---7---9---9---9---9---7---7---7---7--|
A|---7---7---7---7---5---5---5---5---7---7---7---7---5---5---5---5--|
E|------------------------------------------------------------------|

[Solo 2]
(play this After the Bass solo)
E|------15-----------15-----15-----------14B~--14Br------12--12---|
B|--15B----15B~---------15B-----15B~-----------------15-----------|
G|----------------------------------------------------------------|
D|----------------------------------------------------------------|
A|----------------------------------------------------------------|
E|----------------------------------------------------------------|

[Chorus] x2 
(heavy picking)
E|---------------------------------------------------------|
B|-----------------------------------------------8---------|
G|------9----------------------------------------7---------|
D|------9------9---------------------------------6---------|
A|------7------9-------7--7--9--7---7--9--7------7---------|
E|-------------7-------5--5--5--5---5--5--5----------------|


************************************

| h   Hammer-on
| p   Pull-off
| ~   Vibrato
| r   Release
| B   Bend
| Br  Bend release

************************************
Suggest correction
comments
print report bad tab
4 comments total. Showing first comments.
0 reply
RATicuZZ 10 Apr 25, 2006 03:33 PM

i wish i was mr big, great tab

0 reply
Dragon Master 50 Aug 27, 2008 05:02 PM

Great tab, man.

0 reply
GabrielMoore 15 Jan 21, 2014 02:05 PM

Nice Tab man.

guest
You may want to rate the tab now too:
select rating
Wanna post a correction for this tab? Suggest correction