Oops, an error
Loading. Please wait.

Ride On Pony Bass Tab

version 2
version 2

Whole song

by Free
2,722 views 1 this week
no commentswrite comment
1 2 3 4 5
please rate
add to favorites
launch autoscroll
font size
0
reset
guitar tuner
Tab Pro tools
  • play this tab
  • loop segment
  • change instrument
  • show fretboard
  • metronome
×
Best way to learn
"Ride On Pony"
Autoscroll
slow
fast
+/-
esc
set tempo
stop
Contributor
Difficulty
intermediate
-----------------------------------------------------------------------------
			     Ride On A Pony - Free
-----------------------------------------------------------------------------

Tabbed By : Mike_Price
e-mail: mike_price_18@msn.com

Tuning: Standard (EADG)

Hiya guys i couldn't find a tab for this song anywhere also it's my first so any 
are welcome....

The Timing on this song is a bit weird so you will have to listen to the track to get it right.


Intro

G|-----------------------|
D|------------------2----|
A|------------2-4------4-|     x 4
E|-0-0--2--4-------------|


The verses are made up of two riffs.

Riff 1.

G|-----------------------|
D|------------------2----|
A|------------2-4------4-|    x 2
E|-0-0--2--4-------------|

Riff 2.

G|----------------2-------|
D|-----------2-4-----4----|
A|-0-0--2--4--------------|   x 2
E|------------------------|

Riff 1.

G|-----------------------|
D|------------------2----|
A|------------2-4------4-|    x 1
E|-0-0--2--4-------------|


Pre-Chorus

G|---------------------------------------------------|
D|-------9------------9-----------9------------9-----|
A|---------------------------------------------------|
E|--7--------77----------77------------77---------7\-|


Verse

Riff 1.
G|-----------------------|
D|------------------2----|
A|------------2-4------4-|    x 4
E|-0-0--2--4-------------|

Riff 2.
G|----------------2-------|
D|-----------2-4-----4----|
A|-0-0--2--4--------------|   x 2
E|------------------------|

Riff 1.
G|-----------------------|
D|------------------2----|
A|------------2-4------4-|    x 1
E|-0-0--2--4-------------|


Pre-Chorus


G|-------------------------------------------------|
D|-------9------------9-----------9------------9---|
A|-------------------------------------------------|
E|--7--------77----------77------------77----------|


G|-------------------------------------------------|
D|-------------9--------------9--------------------|
A|---5---------7--------------7--------------------|
E|-------5--------------5-------------5------------|


Chorus


G|------9---------9--------------------------------------7-------------7-----|
D|----------------------------9-----------9----------------------------------|
A|--7-------77------------------------------------5-----------55-------------|
E|---------------------7------------77---------------------------------------|

G|-------------------------|
D|------7----------7-------|
A|-------------------------|
E|--5--------55------------|

G|------9---------9--------------------------------------7-------------7-----|
D|----------------------------9-----------9----------------------------------|
A|--7-------77------------------------------------5-----------55-------------|
E|---------------------7------------77---------------------------------------|

G|-------------------------|
D|------7------------------|
A|-------------------------|
E|--5--------5-------------|  Let the A ring out for a bit.

Verse

Riff 1.
G|-----------------------|
D|------------------2----|
A|------------2-4------4-|    x 4
E|-0-0--2--4-------------|

Riff 2.
G|----------------2-------|
D|-----------2-4-----4----|
A|-0-0--2--4--------------|   x 2
E|------------------------|

Riff 1.
G|-----------------------|
D|------------------2----|
A|------------2-4------4-|    x 1
E|-0-0--2--4-------------|


Pre-Chorus


G|-------------------------------------------------|
D|-------9------------9-----------9------------9---|
A|-------------------------------------------------|
E|--7--------77----------77------------77----------|


G|-------------------------------------------------|
D|-------------9--------------9--------------------|
A|---5---------7--------------7--------------------|
E|-------5--------------5-------------5------------|


Chorus


G|------9---------9--------------------------------------7-------------7-----|
D|----------------------------9-----------9----------------------------------|
A|--7-------77------------------------------------5-----------55-------------|
E|---------------------7------------77---------------------------------------|

G|-------------------------|
D|------7----------7-------|
A|-------------------------|
E|--5--------55------------|

G|------9---------9--------------------------------------7-------------7-----|
D|----------------------------9-----------9----------------------------------|
A|--7-------77------------------------------------5-----------55-------------|
E|---------------------7------------77---------------------------------------|

G|-------------------------|
D|------7---------7--------|
A|-------------------------|
E|--5--------5-------------|


Solo


G|--------9----------9-----|
D|-------------------------|
A|---7---------77----------|    x 16
E|-------------------------|

G|-------------------------|
D|--------9----------9-----|
A|-------------------------|    x 8
E|---7----------77---------|

G|------------------|
D|------------------|
A|------------------|
E|---5--------------| let the A ring out for 2 Bars

G|------9---------9--------------------------------------7-------------7-----|
D|----------------------------9-----------9----------------------------------|
A|--7-------77------------------------------------5-----------55-------------|
E|---------------------7------------77---------------------------------------|

G|-------------------------|
D|------7----------7-------|
A|-------------------------|
E|--5--------55------------|

G|------9---------9--------------------------------------7-------------7-----|
D|----------------------------9-----------9----------------------------------|
A|--7-------77------------------------------------5-----------55-------------|
E|---------------------7------------77---------------------------------------|

G|-------------------------|
D|------7------------------|
A|-------------------------|
E|--5--------5-------------|  Let the A ring out again


Chorus


G|------9---------9--------------------------------------7-------------7-----|
D|----------------------------9-----------9----------------------------------|
A|--7-------77------------------------------------5-----------55-------------|
E|---------------------7------------77---------------------------------------|

G|-------------------------|
D|------7----------7-------|
A|-------------------------|
E|--5--------55------------|

G|------9---------9--------------------------------------7-------------7-----|
D|----------------------------9-----------9----------------------------------|
A|--7-------77------------------------------------5-----------55-------------|
E|---------------------7------------77---------------------------------------|

G|-------------------------|
D|------7---------7--------|
A|-------------------------|
E|--5--------5-------------|

G|------9---------9--------------------------------------7-------------7-----|
D|----------------------------9-----------9----------------------------------|
A|--7-------77------------------------------------5-----------55-------------|
E|---------------------7------------77---------------------------------------|

G|-------------------------|
D|------7-----------9------|
A|------------------7------|
E|--5--------5-------------|


| /  slide up
| \  slide down
| h  hammer-on
| p  pull-off
| ~  vibrato
| +  harmonic
| x  Mute note
=============================================================================
comments
We did not receive enough feedback on this tab! Please rate:
print report bad tab
1 2 3 4 5
I want to post or [tab]
guest
You may want to rate the tab now too:
select rating
Please do not post tabs as comments. Select "correction" instead!