Oops, an error
Loading. Please wait.

Two Beers In bass

version 1
version 1

Whole song

  • Based off of ear and live studio video https://www... Show more
  • Based off of this live session https://www.youtube.com/watch?v=5F3KZsRRTe0.

Interactive

586 views 21 this week
no commentswrite comment
1 2 3 4 5
1 last vote to show rating
add to favorites
×
Save as Personal and add changes to this tab that will be seen only by you. Learn more ›
×
You can save this tab as Personal to edit and correct it or add notes. All changes will be seen only by you. Learn more »
launch autoscroll
font size
0
reset
guitar tuner
edit
Autoscroll
slow
fast
+/-
esc
set tempo
stop
Tuning is EABF#

[Intro/Verse]
(This is the main melody of the song that repeats until the chorus.)
F#|-----12----9----12----9----12----12/14-12-9-12-9-7-|-------7-----5-----7-----5-----7-----7-5-7-9-7-9-|
B |0-0-0---0-0--0-0---0-0--0-0---0-0------------------|-5-5-5---5-5---5-5---5-5---5-5---5-5-------------|
A |---------------------------------------------------|-------------------------------------------------|
E |---------------------------------------------------|-------------------------------------------------|

[Chorus 1]
F#|---------------------|       |-----------------------|
B |---------------------|       |-----------------------|
A |---------------------|       |-----------------------|
E |7-7-7-7-7-7-7-7-7-7--|  (x2) |-7-7-7-7-7-7-7/9-9-9-7-|  (x2)

(Then head back into the main melody repeating again.)

[Chorus 2]
(Beginning is the same as the first chorus.)
F#|---------------------|         |-----------------------|
B |---------------------|         |-----------------------|
A |---------------------|         |-----------------------|
E |7-7-7-7-7-7-7-7-7-7--|  (x2)   |-7-7-7-7-7-7-7/9-9-9-7-|  (2x)

F#|----------------------------------------------------------------------------------------------------------|
B |----------------------------------------------------------------------------------------------------------|
A |----------------------------------------------------------------------------------------------------------|
E |7-7-7-7-7-7-7-7-7-7-7-7-7-7-7-7-7-7-9-9-9-11-11-11-12-12-12-12-12-12-9-9-9-7-7-7-12-12-12-12-12-12-9-9-9-7|

(He does a quick slide up and down the E string at the end of the measure.)

[Outro]
(Repeat this 4x)
F#|--------------------------|
B |--------------------------|
A |--------------------------|
E |7-7-7-7-7-7-2-2-2-12-12-12| (and end on a 7.)

(Then just the first half of the main melody again to finish out the song.)

F#|-----12----9----12----9----12----12/14-12-9-12-9-7---|
B |0-0-0---0-0--0-0---0-0--0-0---0-0--------------------|
A |-----------------------------------------------------|
E |-----------------------------------------------------|


************************************

| /  Slide up

************************************

            
            
Suggest correction
Creating personal tab
Creating personal tab
You can edit any tab online and save it as your Personal.

You can edit, replace or remove any tab part or add personal notes – all changes will be seen only by you.

Personal tabs can be accessed anytime from any device, even offline.
Learn more »
Give kudos to tab author, rate the tab!
1 2 3 4 5
comments
print report bad tab
guest
You may want to rate the tab now too:
select rating
Wanna post a correction for this tab? Suggest correction