Oops, an error
Loading. Please wait.

Two Beers In Live bass

version 2
version 2

Whole song

  • Based off of ear and live studio video https://www... Show more
  • Based off of this live session https://www.youtube.com/watch?v=5F3KZsRRTe0.

Interactive

70 views 3 this week
no commentswrite comment
1 2 3 4 5
3 more votes to show rating
add to favorites
×
Save as Personal and add changes to this tab that will be seen only by you. Learn more ›
×
You can save this tab as Personal to edit and correct it or add notes. All changes will be seen only by you. Learn more »
launch autoscroll
font size
0
reset
guitar tuner
edit
Autoscroll
slow
fast
+/-
esc
set tempo
stop
Tuning is:
EABF#
Learned from watching Little Elephant Live Session: https://www.youtube.com/watch?v=5F3KZsRRTe0
This should be 100% accurate.

[Intro]
F#|------12-----9-----12-----9-----12-----14-12-9-12-9-7----------------------|
 B|0-0-0----0-0---0-0----0-0---0-0----0-0-------------------------------------|
 A|---------------------------------------------------------------------------|
 E|---------------------------------------------------------------------------|

F#|------7-----5-----7-----5-----7-----7-5-7-9-7-9----------------------------|
 B|5-5-5---5-5---5-5---5-5---5-5---5-5----------------------------------------|
 A|---------------------------------------------------------------------------|
 E|---------------------------------------------------------------------------|
  x4

[Pre-Chorus]
F#|---------------------------------------------------------------------------|
 B|---------------------------------------------------------------------------|
 A|---------------------------------------------------------------------------|
 E|7-7-7-7-7-7-7-7-7-7---7-7-7-7-7-7-7-7-7-7----------------------------------|
                    "F*ck"              "Every-

F#|---------------------------------------------------------------------------|
 B|---------------------------------------------------------------------------|
 A|---------------------------------------------------------------------------|
 E|7-7-7-7-7-7/9-9-9\7---7-7-7-7-7-7/9-9-9\7----------------------------------|
  -thing"            "About this"

[Verse]
(Same as intro)
F#|------12-----9-----12-----9-----12-----14-12-9-12-9-7----------------------|
 B|0-0-0----0-0---0-0----0-0---0-0----0-0-------------------------------------|
 A|---------------------------------------------------------------------------|
 E|---------------------------------------------------------------------------|
         "You  walk   in..."

F#|------7-----5-----7-----5-----7-----7-5-7-9-7-9----------------------------|
 B|5-5-5---5-5---5-5---5-5---5-5---5-5----------------------------------------|
 A|---------------------------------------------------------------------------|
 E|---------------------------------------------------------------------------|
        "His  big  grin..."
  x2

[Pre-Chorus]
(Same as before)
F#|---------------------------------------------------------------------------|
 B|---------------------------------------------------------------------------|
 A|---------------------------------------------------------------------------|
 E|7-7-7-7-7-7-7-7-7-7---7-7-7-7-7-7-7-7-7-7----------------------------------|
                    "F*ck"              "Every-

F#|---------------------------------------------------------------------------|
 B|---------------------------------------------------------------------------|
 A|---------------------------------------------------------------------------|
 E|7-7-7-7-7-7/9-9-9\7---7-7-7-7-7-7/9-9-9\7----------------------------------|
  -thing"             "About him"


[Chorus] 
F#|---------------------------------------------------------------------------|
 B|---------------------------------------------------------------------------|
 A|---------------------------------------------------------------------------|
 E|7(x18)/9-9-9/11-11-11/12(x6)\9-9-9\7-7-7/12(x6)\9-9-9\7\2/7----------------|
 

F#|-------------------------------------------------------------------------------------|
 B|-------------------------------------------------------------------------------------|
 A|-------------------------------------------------------------------------------------|
 E|7(x6)\2-2-2/12-12-12\7(x6)\2-2-2/12-12-12\7(x6)\2-2-2/12-12-12\7(x6)\2-2-2/12-12-12--| 

(The last half is just the same progression played 4 times)
  
[Outro] 
(First half of the intro again)

F#|------12-----9-----12-----9-----12-----14-12-9-12-9-7----------------------|
 B|0-0-0----0-0---0-0----0-0---0-0----0-0-------------------------------------|
 A|---------------------------------------------------------------------------|
 E|---------------------------------------------------------------------------|
 
************************************

| /  Slide up
| \  Slide down
 

************************************

            
            
Suggest correction
Creating personal tab
Creating personal tab
You can edit any tab online and save it as your Personal.

You can edit, replace or remove any tab part or add personal notes – all changes will be seen only by you.

Personal tabs can be accessed anytime from any device, even offline.
Learn more »
Give kudos to tab author, rate the tab!
1 2 3 4 5
comments
print report bad tab
guest
You may want to rate the tab now too:
select rating
Wanna post a correction for this tab? Suggest correction