Oops, an error
Loading. Please wait.

Fairyland bass

version 1
version 1

Whole song

Interactive

108 views 1 this week
no commentswrite comment
1 2 3 4 5
3 more votes to show rating
add to favorites
×
Save as Personal and add changes to this tab that will be seen only by you. Learn more ›
×
You can save this tab as Personal to edit and correct it or add notes. All changes will be seen only by you. Learn more »
launch autoscroll
font size
0
reset
guitar tuner
edit
Autoscroll
slow
fast
+/-
esc
set tempo
stop
credit to songster, i am just converting to txt form, this is the tuning they had.

Intro
F|------------|------------|------------|------------|------------|------|
C|------------|------------|------------|------------|------------|------|
G|------------|------------|------------|------------|------------|------|
D|-0--0--0--0-|-0--0--0--0-|-0--0--0--0-|-0--0--0--0-|-0--0--0--0-|-0--0-|
rest 2 bars after (LAST BAR AND A HALF ARE GHOST NOTES)

Rhythm A - X2
F|-----------------|-----------------|-----------------|-----------------|
C|-----------------|-----------------|-----------------|-------------4---|
G|-----------------|---------7-7-5-5-|-3-3-3-3-3-3-0-0-|-0-0-0-0-3-----5-|
D|-0-0-0-0-0-0-0-0-|-0-0-0-0---------|-----------------|-----------------|

Rhythm B - X2
F|---------------|------------------|---------------|------------------|
C|---------------|------------------|---------------|------------------|
G|-7~----5-7-----|------------------|-7~----5-7---3-|-3333333333333333-|
D|-------------0-|-0000000000000000-|---------------|------------------|

Rhythm C - X1
F|----------------|-----------------|-----------------|---------------------|
C|----------------|-----------------|-----------------|---------24-5/4-5/2--|
G|----------------|-----------------|-----------------|---------------------|
D|0-0-0-0-0-0-0-0-|-0-0-000-0-0-000-|-0-0-0-0-0-0-0-0-|-0-0-0-0-------------|

Verse 1 - X1
F|-----------------|-----------------|------------------|----------------|
C|-----------------|-----------------|------------------|----------------|
G|-----------------|---------7-7-5-5-|-3-3-3-2\3-3-0-0--|-0-0-0-0-3---x-5|
D|-0-0-0-0-0-0-0-0-|-0-0-0-0---------|------------------|----------------|

F|-----------------|-----------------|------------------|----------------|
C|-----------------|-----------------|------------------|----------------|
G|-----------------|---------7-7-5-5-|-3-3-3-2\3-3-0-0--|-0-0-0-0-3---5--|
D|-0-0-0-0-0-0-0-0-|-0-0-0-0---------|------------------|----------------|

Rhythm B - X1
F|---------------|------------------|---------------|------------------|
C|---------------|------------------|---------------|------------------|
G|-7~----5-7-----|------------------|-7~----5-7---3-|-3333333333333333-|
D|-------------0-|-0000000000000000-|---------------|------------------|

Verse 2 - X1
F|-----------------|-----------------|------------------|----------------|
C|-----------------|-----------------|------------------|----------------|
G|-----------------|---------7-7-5-5-|-3-3-3-2\3-3-0-0--|-0-0-0-0-3---x-5|
D|-0-0-0-0-0-0-0-0-|-0-0-0-0---------|------------------|----------------|

F|-----------------|-----------------|------------------|----------------|
C|-----------------|-----------------|------------------|----------------|
G|-----------------|---------7-7-5-5-|-3-3-3-2\3-3-0-0--|-0-0-0-0-3---5--|
D|-0-0-0-0-0-0-0-0-|-0-0-0-0---------|------------------|----------------|

Pre Chorus - X1
F|------------------|-----------------|------------------|-----------------|
C|------------------|-----------------|------------------|-----------------|
G|-2222222277777777-|-55555555--------|---------33333333-|-2---2~--2-2-x---|
D|------------------|----------3----2-|-00000000---------|-----------------|

Chorus - X1
F|-------------------|---------------------|-------------------|
C|-------------------|---------------------|-------------------|
G|--------7~---------|---------5~---5-5555-|--------7~---------|
D|-0-0-xxx---0000000-|-3--333--------------|-0-0-xxx---0000000-|

F|-------------------|-------------------|---------------------|
C|-------------------|-------------------|---------------------|
G|------5~---5--5555-|--------7~---------|---------5~---5-5555-|
D|-3-3-3-------------|-0-0-xxx---0000000-|-3--333--------------|

F|-------------------|---------------------|
C|-------------------|---------------------|
G|--------7~---------|---------5~----------|
D|-0-0-xxx---0000000-|-3--333--------------|

Rhythm C - X1
F|----------------|-----------------|-----------------|---------------------|
C|----------------|-----------------|-----------------|---------24-5/4-5/2--|
G|----------------|-----------------|-----------------|---------------------|
D|0-0-0-0-0-0-0-0-|-0-0-000-0-0-000-|-0-0-0-0-0-0-0-0-|-0-0-0-0-------------|

Verse 3 - X1
F|--------------------|--------------------|------------------|
C|--------------------|--------------------|------------------|
G|--------------------|-----------77775555-|-3333332233330000-|
D|-0000~--00000000000-|-0000~--000---------|------------------|

F|------------------|------------------|------------------|
C|------------------|------------------|------------------|
G|-0000000033335555-|------------------|---------77775555-|
D|------------------|-0000000000000000-|-00000000---------|

F|-------------------|----------------|
C|-------------------|----------------|
G|-3333332\333330000-|-00000000-3---5-|
D|-------------------|----------------|

Pre Chorus - X1
F|------------------|-----------------|------------------|-----------------|
C|------------------|-----------------|------------------|-----------------|
G|-2222222277777777-|-55555555--------|---------33333333-|-2---2~--2-2-x---|
D|------------------|----------3----2-|-00000000---------|-----------------|

Chorus -     [this part 3 times]         Do this on 4th time
F|-------------------|------------------|-------------------|---------------|
C|-------------------|------------------|-------------------|---------------|
G|-77777777~-7777777-|-------5~-5555555-|-77777777~-7777777-|-------5~------|
D|-------------------|-333333-----------|-------------------|-3-3-3---------|

Break - X2
F|-------------------|------------------|-------------------|---------------|
C|-------------------|------------------|-------------------|---------------|
G|-------------------|------------------|-------------------|---------------|
D|0~~~---------------|------------------|-------------------|---------------|

Verse 4 - X1
F|-----------------|-----------------|
C|-----------------|-----------------|
G|-------2-2-2-2-2-|-5-5-5-0-0-0-0-0-|
D|-0-0-0-----------|-----------------| X2

F|------------------|------------------|
C|------------------|------------------|
G|-------2222222222-|-5555550000000000-|
D|-000000-----------|------------------| X2

Interlude - X3
|-----------------|-----------------|
|-----------------|-----------------|
|-7-7-7-7-5-5-5-5-|-3-3-3-3-2-2-2-2-|
|-----------------|-----------------|

Chorus -     [this part 3 times]         Do this on 4th time
F|-------------------|------------------|-------------------|---------------|
C|-------------------|------------------|-------------------|---------------|
G|-77777777~-7777777-|-------5~-5555555-|-77777777~-7777777-|-------5~------|
D|-------------------|-333333-----------|-------------------|-3-3-3---------|

Outro -
F|-------------------|------------------|-------------------|---------------|
C|-------------------|------------------|-------------------|---------------|
G|-------------------|------------------|-------------------|---------------|
D|0~~~---------------|------------------|0~~~---------------|--------00--00-|

F|-------------------|------------------|-------------------|---------------|
C|-------------------|------------------|-------------------|---------------|
G|-------------------|------------------|-------------------|---------------|
D|0~~~---------------|------------------|0~~~---------------|--------00-----|

thats it, enjoy, i know its long but there is tiny variations here and there, tried to 
make it as short as possible.
Suggest correction
Creating personal tab
Creating personal tab
You can edit any tab online and save it as your Personal.

You can edit, replace or remove any tab part or add personal notes – all changes will be seen only by you.

Personal tabs can be accessed anytime from any device, even offline.
Learn more »
Give kudos to tab author, rate the tab!
1 2 3 4 5
comments
print report bad tab
guest
You may want to rate the tab now too:
select rating
Wanna post a correction for this tab? Suggest correction