Oops, an error
Loading. Please wait.

Pharao bass

version 1
version 1

Whole song

Interactive

73 views 3 this week
no commentswrite comment
1 2 3 4 5
3 more votes to show rating
add to favorites
×
Save as Personal and add changes to this tab that will be seen only by you. Learn more ›
×
You can save this tab as Personal to edit and correct it or add notes. All changes will be seen only by you. Learn more »
launch autoscroll
font size
0
reset
guitar tuner
edit
Autoscroll
slow
fast
+/-
esc
set tempo
stop
Author
Difficulty
Artist: Freedom Call
Title: Pharao
Album: Chrystal Empire
Tab  : Felix Kiesewetter (TheMaster@ironmaiden.com)
Comments: the numbers in the () are notes you can play with the 7 together, that
sounds
          cool, but in fact I think the bassist of Freedom Call plays only the 0
while
          the guitars play the high E on the 7.

____________________________________________________________________________________________
BASS TAB (4-STRING BASS)

Tune down 1/2 step (Eb,Ab,Db,Gb)

Intro
Gb|------------------------|
Db|------------------------|
Ab|-R---------7*-R---------|
Eb|------------------------|


Chorus                   x2
Gb|---------------------|  |------|
Db|---------------------|  |------|
Ab|(7*)--3*-------------|  |(7*)--|
Eb|-0*--------3*---5*---|  |-0*---|


Verse
Gb|-----------------------------------------------------------------|
Db|-----------------------------------------------------------------|
Ab|(7-7-7-7-7-7-7-7-7-7-7-7-7-7-7-7)3-3-3-3-3-3-3-3-2-2-2-2-2-2-2-2-|
Eb|-0-0-0-0-0-0-0-0-0-0-0-0-0-0-0-0---------------------------------|


Fill
Gb|----------------------|
Db|----------------------|
Ab|---------3--3--3-2*---|
Eb|-0*-------------------|

Gb|-----------------------|
Db|-----------------------|
Ab|---------3--3--3-2-2-2-|
Eb|-0*--------------------|


Pre-Chorus
Gb|----------------------|
Db|----------------------|
Ab|---------3--3--3-2*---|
Eb|-0*-------------------|

Gb|-------------------------------------------------|
Db|-------------------------------------------------|
Ab|---------3--3--3-2-2-2-2-2-2-2-2-2-2-2-2-2-2-2-2-|
Eb|-0*----------------------------------------------|


Outro                                                          x2
Gb|-----------------------------------------------------------|
Db|-----------------------------------------------------------|
Ab|-7-7-7-8-7-7-7-5-7-7-7-8-7*--------------------------------|
Eb|------------------------------7-7-7-8-7-7-7-5-7-7-7-8-7*---|

Gb|------------------------------------------------------------------->
Db|-2-2-2-2-2-2-2-2--------------------------------------------------->
Ab|-----------------2-2-2-2-2-2-2-2-5-5-5-5-5-5-5-5-5-----------------> repeat throughout
Eb|---------------------------------------------------5-5-5-5-5-5-5-5-> solos and fade out

***ALL CREDIT GOES TO THE NAME ABOVE, JUST MOVED TO HERE FROM ANOTHER SITE***

structure:
Intro
Chorus
Verse x2
Fill
Verse x2
Pre-Chorus
Chorus
Verse x2
Pre-Chorus
Chorus
Outro



 4*    = let the note ring
      = pull down from an higher fret
 /     = pull up from 0
 R     = rest
 6p5   = pull from the 6th fret to the 5th
 5h6   = hammer from the 5th fret to the 6th
 p.m.  = palm muted
 ^9    = harmonic
 s7    = slap

            
            
Suggest correction
Creating personal tab
Creating personal tab
You can edit any tab online and save it as your Personal.

You can edit, replace or remove any tab part or add personal notes – all changes will be seen only by you.

Personal tabs can be accessed anytime from any device, even offline.
Learn more »
Give kudos to tab author, rate the tab!
1 2 3 4 5
comments
print report bad tab
guest
You may want to rate the tab now too:
select rating
Wanna post a correction for this tab? Suggest correction