Oops, an error
Loading. Please wait.

Turn Back Time chords

version 1
version 1

Whole song

Interactive

376 views 1 this week
no commentswrite comment
1 2 3 4 5
3 more votes to show rating
add to favorites
×
Save as Personal and add changes to this tab that will be seen only by you. Learn more ›
×
You can save this tab as Personal to edit and correct it or add notes. All changes will be seen only by you. Learn more »
launch autoscroll
font size
0
reset
transpose
0
reset
display chords
guitar tuner
edit
Autoscroll
slow
fast
+/-
esc
set tempo
stop
Author
Difficulty
intermediate
Strumming
There is no strumming pattern for this song yet. and get +5 IQ
[Intro]
Ebm Bb Ebm Ab Ebm Bb Ebm

[Verse 1]
Ebm                Bb         Ebm
A song of sadness, rhymes of pain
     Abm         Ebm     Bb         Ebm
The sounds of my tragedy out in the rain
Abm          Ebm  Bb         Ebm
Aww haww Ahh haww Out in the Rain
Ebm               Bb        Ebm
I made my way and left you alone
Abm       Ebm        Bb       Ebm
I have denied you to be on my own
Abm          Ebm  Bb          Ebm
Aww haww Ahh haww to be on my own

[Pre-Chorus]
Ab                  Eb
While the years are passing by
      Cm            Ab        Bb
The flame is still burning inside
   Ab             Eb
I still remember you and I
     Cm        Ab        Bb
Our love, it will never die

[Chorus]
           Eb        Bb
If I could turn back time
Ab        Eb   Bb
Ease my desi - re
    Cm
I always remember
    Ab                         Bb
The sadness I’ve seen in your eyes

[Intro]
Ebm Bb Ebm Ab Ebm Bb Ebm


[Verse 2]
Ebm                        Bb           Ebm
I call for the master, I’m calling his name
   Abm          Ebm  Bb             Ebm
Mysterious laughter, tortures my brain
Abm          Ebm  Bb          Ebm
Aww haww Ahh haww Tortures my brain.
Ebm                 Bb
Stories of sadness, stories of pain
     Abm        Ebm          Bb           Ebm
I’m telling my tales to the wind and the rain
Abm           Ebm  Bb               Ebm
Aww haww Ahh haww to wind and the rain.

[Pre Chorus]
Ab               Eb
All the dreams I had in my mind
      Cm      Ab        Bb
I was doing whatever I like
   Ab            Eb
I still remember you and I
     Cm        Ab         Bb
Our love, it will never die

           Eb        Bb
If I could turn back time
Ab        Eb   Bb
Ease my desi - re
  Cm
I always remember
    Ab                        Bb
The sadness I’ve seen in your eyes
           Eb        Bb
If I could turn back time
Ab        Eb   Bb
Ease my desi - re
    Cm
It hurts me forever
        Ab                  Bb
That I lost the love of my life

[Solo]

       Ebm      Bb       Ebm  Abm      Ebm
e|-----14-18-14-13-14-16-18---19-18-16-18-16-14----------------------|
B|-16----------------------------------------------------------------|
G|-------------------------------------------------------------------|
D|-------------------------------------------------------------------|
A|-------------------------------------------------------------------|
E|-------------------------------------------------------------------|
  Bb                           Ebm
     H  O     H  O     H  O    H
e|13-14-13--11-13-11--10-11-10-11------------------------------------|
B|-------------------------------------------------------------------|
G|-------------------------------------------------------------------|
D|-------------------------------------------------------------------|
A|-------------------------------------------------------------------|
E|-------------------------------------------------------------------|

       Ebm      Bb       Ebm  Abm      Ebm
e|-----14-18-14-13-14-16-18---19-18-16-18-16-14----------------------|
B|-16----------------------------------------------------------------|
G|-------------------------------------------------------------------|
D|-------------------------------------------------------------------|
A|-------------------------------------------------------------------|
E|-------------------------------------------------------------------|
  Bb                           Ebm
     H  O     H  O     H  O    H
e|13-14-13--11-13-11--10-11-10-11------------------------------------|
B|-------------------------------------------------------------------|
G|-------------------------------------------------------------------|
D|-------------------------------------------------------------------|
A|-------------------------------------------------------------------|
E|-------------------------------------------------------------------|

   Ab            Eb        Cm            Bb            
e|-4--4-4--6--8--6---------8--8-8-6--4--4/6--------------------------|
B|------------------4--4---------------------------------------------|
G|-------------------------------------------------------------------|
D|-------------------------------------------------------------------|
A|-------------------------------------------------------------------|
E|-------------------------------------------------------------------|

   Ab            Eb        Cm         Bb
e|-4--4-4--6--8--6---------8--8-8-10-11/13---------------------------|
B|------------------4--4---------------------------------------------|
G|-------------------------------------------------------------------|
D|-------------------------------------------------------------------|
A|-------------------------------------------------------------------|
E|-------------------------------------------------------------------|

Eb        Bb
Turn back time
Ab        Eb   Bb
Ease my desi - re
  Cm
I always remember
    Ab                        Bb
The sadness I’ve seen in your eyes
           Eb        Bb
If I could turn back time
  Ab         Eb   Bb
Relieve my desi - re
    Cm
It hurts me forever
        Ab                  Bb
That I lost the love of my life

           Eb        Bb
If I could turn back time
  Ab         Eb   Bb
Relieve my desi - re
    Cm
It hurts me forever
        Ab                  Bb
That I lost the love of my life

e|-------------------------------------------------------------------|
B|-18(B)-16(ring)----------------------------------------------------|
G|-------------------------------------------------------------------|
D|-------------------------------------------------------------------|
A|-------------------------------------------------------------------|
E|-------------------------------------------------------------------|

[Intro]
Ebm Bb Ebm Ab Ebm Bb Ebm

            
            
Suggest correction
Creating personal tab
Creating personal tab
You can edit any tab online and save it as your Personal.

You can edit, replace or remove any tab part or add personal notes – all changes will be seen only by you.

Personal tabs can be accessed anytime from any device, even offline.
Learn more »
Give kudos to tab author, rate the tab!
1 2 3 4 5
comments
print report bad tab
guest
You may want to rate the tab now too:
select rating
Wanna post a correction for this tab? Suggest correction