Oops, an error
Loading. Please wait.

Generator First Floor ukulele

version 2
version 2

Whole song

136 views 1 this week
no commentswrite comment
1 2 3 4 5
2 more votes to show rating
add to favorites
×
Save as Personal and add changes to this tab that will be seen only by you. Learn more ›
×
You can save this tab as Personal to edit and correct it or add notes. All changes will be seen only by you. Learn more »
launch autoscroll
font size
0
reset
transpose
0
reset
display chords
guitar tuner
edit
Autoscroll
slow
fast
+/-
esc
set tempo
stop
Author
Strumming
There is no strumming pattern for this song yet. and get +5 IQ
-------------------------------------------------------------------------------
                     GENERATOR (FIRST FLOOR) - Freelance Whales
-------------------------------------------------------------------------------

Tuning: Standard

A|----------------------------------------------------|
E|------------4-------------4-------------4-----------|
C|-1--5-5--1-----1--5-5--1-----1--5-5--1--------------|
G|----------------------------------------------------|

A|--------------------------|
E|-4-6-7-6-4----------------|
C|-----------6-5-3----------|
G|--------------------------|




We get up early just to start cranking the generator
Our limbs have been asleep we need to get the blood back in 'em
We're finding everyday several ways that we can be friends

We keep on turning and the lights inside our house turn on
And in our native language we are chanting ancient songs
And when we quiet down the house chants on without us

            
            
Suggest correction
Creating personal tab
Creating personal tab
You can edit any tab online and save it as your Personal.

You can edit, replace or remove any tab part or add personal notes – all changes will be seen only by you.

Personal tabs can be accessed anytime from any device, even offline.
Learn more »
Give kudos to tab author, rate the tab!
1 2 3 4 5
comments
print report bad tab
guest
You may want to rate the tab now too:
select rating
Wanna post a correction for this tab? Suggest correction