Oops, an error
Loading. Please wait.

Before I Let You Go Tab

version 1
version 1

Whole song

Interactive

66,944 views 90 this week
no commentswrite comment
1 2 3 4 5
x 5
add to favorites
launch autoscroll
font size
0
reset
how to read this tab
guitar tuner
Autoscroll
slow
fast
+/-
esc
set tempo
stop
Author
Guitar Tabber:Aaron Olay/16/m/Philippines
              sriver_spiriit755@yahoo.com(YM)
              anonymous_crusader2002@yahoo.com(Friendster)
[Intro]
e|-------------------------------------------12----------|
B|-----------0--2---------4------0-----------12----------|
G|-1---2--2----------4----4------2-----------------------| 
D|-------------------------------2-----------------------|
A|-------------------------------0-----------------------|
E|-0---2-------------4----4------------------------------|
                                               
e|----0------0------0------------------------------------|
B|----0------0------0------------------------------------|
G|----0------0------2----2--1----------------------------| 
D|----2------4------2----2--2----------------------------|
A|----3------5------0----2--2----------------------------|
E|-------------------------------------------------------|

[Verse]
e|------------------------------------------0------------|
B|----------0----------2----------4-----2----------------|
G|--1----1------2----2-2---4----4-4-----2----------------| 
D|-------------------------------------------------------|
A|--------------------------------------0---2------------|
E|--0--0----0---2--2---2---4--4---4----------------------|

[Refrain]
e|----------------------------------------------0--------|
B|-5------5-----------4------------2----------4----------|
G|-----------4-----4-------2-----2----------4------------| 
D|------6---------------------------------4--------------|
A|-4--4---------------4------------2----2----------------|
E|-----------4---4----4----2---2---2---------------------|

[Chorus]
e|------------------------------------------0------------|
B|----------0----------2----------4-----2----------------|
G|--1----1------2----2-2---4----4-4-----2----------------| 
D|-------------------------------------------------------|
A|--------------------------------------0---2------------|
E|--0--0----0---2--2---2---4--4---4----------------------|


e|-------------------------0-----------------------------|
B|---------2---------4-----0-----------------------------|
G|-2----2--2-------4-------2-----------------------------| 
D|---------------4---------2-----------------------------|
A|-------------2-----------------------------------------|
E|-2--2----2---------------------------------------------|

e|-------------------------------------0-----0-----------|
B|-5------5-----------4-------------4--------0-----------|
G|-----------4-----4-------------4-----------2-----------| 
D|------6---------------------4--------------2-----------|
A|-4--4---------------4-----2----------------------------|
E|-----------4---4----4----------------------------------|


e|-------------------------0-----------------------------|
B|---------2---4--------4--0-----------------------------|
G|-2----2--2---------4-----2-----------------------------| 
D|-------------------------2-----------------------------|
A|----------------------4--------------------------------|
E|-2--2----2---4--4-----4--------------------------------|



"I love you"-Intro tabs...

Then Repeat the whole part until Bridge....

I just strum the bridge part here are the chords..

[Bridge]
F#m7                               G#m7
   Cause letting love go is never easy.
     AM7                                   G#7sus           
 But I love you so, that's why I set you free
 G#7            C#m7                E/B             Bbdim7
 yeahyeah. And I know, someday, somehow, I'll find a way
    F#m7            G#m7             AM7              D7(pause)        
 to leave it all behind me. Guess it wasn't meant to be,
           
 but baby 

[Chorus]
    G              AM7              Bm7    C9     
 Before I let you go, I want to say I love you.
AM7                  D9                     G      B7sus      
  I hope that you're listening cause it's true, baby
B7/Eb          Em7        Bm7                    
  You'll be forever in my heart, and I know that
 Dm7          CM7
 no one else will do.
Bm7,   AM7           Bm7          CM7   Em   
 So before I let you go, I want to say it
       AM7           Bm7           Cm   
 So before I let you go, I want to say

[Coda]
G, Am, Bm7    
       I love you

(Lyrics)

[Verse]
I can still remember yesterday
We were so in love in a special way
And knowing that you loved me
Made me feel oh so right
But now I feel lost, don't know what to do
Each and every day I think of you
Holdin' back the tears, I'm trying with all my might

[Refrain]
Because you've gone and left me standing All alone
And I know I've got to face tomorrow On my own....
But baby....

[Chorus]
Before I let you go
I want to say I love you
I hope that you're listenin' 'Coz it'strue,baby
You'll be forever in my heart
And I know that no one else will do,
yeah So before I let you go
I want to say it.....
I love you

[Interlude]
I wish that it could be just like before
I know I could've given you so much more
Even though you know I'd given you all my love
I miss your smile, I miss your kiss
Each and every day I reminisce
'Coz baby it's you That I'm always dreaming of...

[Refrain]
Because you've gone and left me standing All alone
And I know I've got to face tomorrow On my own....
But baby....

[Chorus]
Before I let you go
I want to say I love you
I hope that you're listenin' 'Coz it'strue,baby
You'll be forever in my heart
And I know that no one else will do,
yeah So before I let you go
I want to say it.....
I love you

[Bridge]
Letting love go is never easy
But I love you so That's why I set you free And I know
Someday
Somehow
I'll find a way To leave it all behind me
Guess it wasn't meant to be But baby.........

[Chorus]
So before I let you go I want to say.......it I love you
Suggest correction
comments
print report bad tab
guest
You may want to rate the tab now too:
select rating
Wanna post a correction for this tab? Suggest correction