Oops, an error
Loading. Please wait.

Once In A Lifetime tab

version 3
version 3

Whole song

7,568 views 1 this week
no commentswrite comment
1 2 3 4 5
2 more votes to show rating
add to favorites
×
Save as Personal and add changes to this tab that will be seen only by you. Learn more ›
×
You can save this tab as Personal to edit and correct it or add notes. All changes will be seen only by you. Learn more »
launch autoscroll
font size
0
reset
how to read this tab
guitar tuner
edit
Autoscroll
slow
fast
+/-
esc
set tempo
stop
Difficulty
Song title: Once in a lifetime
Artist: Freestyle
Tabbed by: Christopher John R. Manuel – University of the Assumption –
     Pampanga.

Tuning: Standard

	This song is dedicated 2 all 4-St. James and S.A.D(speech and drama) club
members!!! Please Rate ^_^!!

Intro: D2 C2 G(2X) D2 C2 G(break)

e|-----------|-----------|
B|-----------|-----------|
G|-5-4-----5-|-5-4-----7-|
D|-----7-5---|-----7-5---|
A|-----------|-----------|
E|-----------|-----------|

e|------------------------------|
B|------------------------------|
G|-5-4-----55-4444----------5---|
D|-----7-5---------777-55-7---5-|
A|------------------------------|
E|------------------------------|

e|-------------|
B|-------------|
G|-4s5-----5h7-|
D|-----7-5-----|
A|-------------|
E|-------------|

Verse1
A2                        E
Been thinkin about you baby
         Bm7
And i dont know what to do
       D
All i think about is you
A2                       E
Seems everything around me
               Bm7
Things ive never understood
                    D
They all make sense when im with you

Refrain
Bm7                      F#m
Oh ive heard it all before 
Bm7                               F#m
Finding so called love then you leave it behind
Bm7                F#m
But now i feel so sure
             D
I'll listen to my heart this time
          E(break)
So I'll lay it on the line

Chorus:
A                      E
I know that what ive found is 
                 Bm7-D
Once in a lifetime
A                      E
And i know there's no way out
                     Bm7-D(break)
COz once in a lifetime

VErse 2 (do verse 1 chordz)

Ive always been so lonely
No one there for me to hold
And every night was just so cold
Oh dont get me wrong Ive been around
But ive resigned myself to thinkin
Mine is just anothe story often told

Refrain
Bm7                      F#m
Oh ive heard it all before 
Bm7                               F#m
Finding so called love then you leave it behind
Bm7                F#m
But now i feel so sure
             D
I'll listen to my heart this time
          E(break)
With my heart before my mind?(im not sure w/ the lyrics of this part)

Chorus:
A                      E
I know that what ive found is 
                 Bm7-D
Once in a lifetime
A                      E
And i know there's no way out
                     Bm7-D(down strum then break =)
COz once in a lifetime

Bridge:
G                             A
Its not like im running outta time
G                           A
Im taking everything in stride
G                             A
Its just i never thought id find
G                               E(down strum then break =)
What would make me change my mind

(Repeat chorus 2 frets higher)
	B F# C#m7 E(4x)
Ending

Chordz used:
  
     

	 A2                 F#                  E             Bm7
  |-----0-----|        |----2-----|       |----0----|     |----2----|
  |-----0-----|        |----2-----|       |----0----|     |----3----|
  |-----2-----|        |----3-----|       |----1----|     |----2----|
  |-----2-----|        |----4-----|       |----2----|     |----4----|
  |-----0-----|        |----4-----|       |----2----|     |----2----|
  |-----------|        |----2-----|       |----0----|     |----x----|

        D                  F#m
  |-----2-----|        |----2-----|       
  |-----3-----|        |----2-----|    
  |-----2-----|        |----2-----|      
  |-----0-----|        |----4-----|       
  |-----------|        |----4-----|     
  |-----------|        |----2-----|       

       D5                  C5                  G 
  |-----5-----|        |----3-----|       |----3----|     
  |-----5-----|        |----3-----|       |----3----|    
  |-----7-----|        |----5-----|       |----0----|    
  |-----7-----|        |----5-----|       |----0----|    
  |-----5-----|        |----3-----|       |----2----|     
  |-----------|        |----------|       |----3----|     

        A                  C#m7
  |-----0-----|        |----4-----|       
  |-----2-----|        |----5-----|    
  |-----2-----|        |----4-----|      
  |-----2-----|        |----6-----|       
  |-----0-----|        |----4-----|     
  |-----------|        |----------|       



	

            
            
Suggest correction
Creating personal tab
Creating personal tab
You can edit any tab online and save it as your Personal.

You can edit, replace or remove any tab part or add personal notes – all changes will be seen only by you.

Personal tabs can be accessed anytime from any device, even offline.
Learn more »
Give kudos to tab author, rate the tab!
1 2 3 4 5
comments
print report bad tab
guest
Wanna post a correction for this tab? Suggest correction