Oops, an error
Loading. Please wait.

This Time Tab

169 views 18 this week
no commentswrite comment
1 2 3 4 5
3 more votes to show rating
add to favorites
launch autoscroll
font size
0
reset
how to read this tab
guitar tuner
Autoscroll
slow
fast
+/-
esc
set tempo
stop
Help us to improve Ultimate-Guitar.com Take our survey!
×
Author
Difficulty
Capo
intermediate
3rd fret
About this tab version
This tab is arranged by Jelo Andre A. Tolentino. Was this info helpful? Yes No
Capo Fret 3

[Stave 1]

E|-----3-----3-----3-----2--|
B|--3-----3-----3-----3--3--|
G|--0-----0-----0--------1--|
D|--------2-----2--------0--|
A|--------2-----3-----------|
E|--3-----------------------|

[Stave 2]

E|-----------------------------------------------------2--2--2--3-----------------------------|
B|--------------------------------0--------------------------------3-----0--1--3--1--0--------|
G|--0--2--3--0--0-----0--2--2--0-----------0-----0--0-----------------------------------0--2--|
D|--------------------------------------------------------------------------------------------|
A|--------------------------2-----------2--------------3--------------2--------3--------------|
E|--------3-----------------------------------------------------------------------------------|

[Stave 3]

E|-----------------------------------------------------2--2--2--3-----------------------------|
B|--------------------------------0--------------------------------3-----0--1--3--1--0--------|
G|--0--2--3--0--0-----0--2--2--0-----------0-----0--0-----------------------------------0-----|
D|--------------------------------------------------------------------------------------------|
A|--------------------------2-----------2--------------3--------------2--------3--------------|
E|--------3-----------------------------------------------------------------------------------|
 2x

[Stave 4]

E|-----------------------------------------------------------------------------0--|
B|--------------------------------0-----0-----------------------------0--3-----3--|
G|--0--2--3--0--0-----0--2--2--0-----------2--2--0--0-----0--0--0--2-----------0--|
D|-----------------------------------------------------------------------------2--|
A|--------------------------2-----------------3--------------------------------3--|
E|--------3-----------------------------------------------------------------------|

[Stave 5]

E|--0-----------------------0-----------------------0-----|
B|--5--3--3--3--3--0--1--3-----------0-----------------3--|
G|--------0--------------0-----0--2-----2--------0--------|
D|--------------------------------------------2-----------|
A|-----------------------2-----------------3--------------|
E|--------3-----------------------------------------------|

[Stave 6]

E|--0-----------------------0-----------------------|
B|--5--3--3--3--3--0--1--3-----------0--1--3--0-----|
G|--------0--------------0-----0--2-----0--------2--|
D|--------------------------------------------------|
A|-----------------------2--------------3-----------|
E|--------3-----------------------------------------|

[Stave 7]
                                                      Go back to chorus before this line
E|--------2--2--2--3-----------------------------------------------------|
B|--------------------3-----------0--1--3--1--0-----------0--------------|
G|--0--0-----------------------0--------0--------0--2--------2--2--0--0--|
D|--------------------------0--------------------------------------------|
A|--------3--------------2--------------3--------------------------------|
E|--------------------------------------------------------------3--------| 2x

Check out my youtube channel:
https://www.youtube.com/channel/UCBnbJPS_bJnK9M6xfMETS7w

Check out my video on this song:
https://www.youtube.com/watch?v=_3YMyuiVpEs
Suggest correction
Give kudos to tab author, rate the tab!
1 2 3 4 5
comments
print report bad tab
guest
You may want to rate the tab now too:
select rating
Wanna post a correction for this tab? Suggest correction