Oops, an error
Loading. Please wait.

Arschtritt Tab

version 1
version 1

Whole song

Interactive

18,081 views 6 this week
1 commentread comment
1 2 3 4 5
please rate
add to favorites
launch autoscroll
font size
0
reset
how to read this tab
guitar tuner
Autoscroll
slow
fast
+/-
esc
set tempo
stop
Help us to improve Ultimate-Guitar.com Take our survey!
×
Author
Difficulty
novice
Artist : Frei.Wild
Song   : Arschtritt
Album  : Hart am Wind

tabbet by Acorwyn for Questions ask me in Icq or email:
Icq   : 401228143
Email : lolololololo1337@web.de

It's my first Tab so its maybe not perfect :) Pls say me Fails.


Intro:

E-----------------------------------------------------------------------|
B-----------------------------------------------------------------------|
G-----------------------------------------------------------------------|
D--9---999999---9---99---9---99---9/---5---555555---5---55---5---55---5-|
A--9---999999---9---99---9---99---9/---5---555555---5---55---5---55---5-|
E--7---777777---7---77---7---77---7/---3---333333---3---33---3---33---3-|
       ......       ..       ..            ......       ..       ..

E----------------------------------------------------------------------|
B----------------------------------------------------------------------|
G----------------------------------------------------------------------|
D--2---222222---2---22---2---22---2---7---777777---7---77---7---77---7-|
A--2---222222---2---22---2---22---2---7---777777---7---77---7---77---7-|
E--0---000000---0---00---0---00---0---5---555555---5---55---5---55---5-|
       ......       ..       ..           ......       ..       ..

E-----------------------------------------------------------------------|
B-----------------------------------------------------------------------|
G-----------------------------------------------------------------------|
D--9---999999---9---99---9---99---9/---5---555555---5---55---5---55---5-|
A--9---999999---9---99---9---99---9/---5---555555---5---55---5---55---5-|
E--7---777777---7---77---7---77---7/---3---333333---3---33---3---33---3-|
       ......       ..       ..            ......       ..       ..

E---------------------------------------|
B---------------------------------------|
G---------------------------------------|
D--2---222222---2---22---2---22---2---7-|
A--2---222222---2---22---2---22---2---7-|
E--0---000000---0---00---0---00---0---5-|
       ......       ..       ..


Zwischenspiel:

E--------------5---------------------5---------------------5---------|
B--5-7-5-7-5-7---7-5-7---5-7-5-7-5-7---7-5-7---5-7-5-7-5-7---7-5-7---|
G--------------------------------------------------------------------|
D--------------------------------------------------------------------|
A--------------------------------------------------------------------|
E--------------------------------------------------------------------|

E--------------------------|
B--3-3333-5-3/-6-6666-5-3--|
G--------------------------| 2x
D--------------------------|
A--------------------------|
E--------------------------|

Verse:

E-----------------------------------------------------------------------|
B-----------------------------------------------------------------------|
G-----------------------------------------------------------------------|
D--9---999999---9---99---9---99---9/---5---555555---5---55---5---55---5-|
A--9---999999---9---99---9---99---9/---5---555555---5---55---5---55---5-|
E--7---777777---7---77---7---77---7/---3---333333---3---33---3---33---3-|
       ......       ..       ..            ......       ..       ..

E----------------------------------------------------------------------|
B----------------------------------------------------------------------|
G----------------------------------------------------------------------|
D--2---222222---2---22---2---22---2---7---777777---7---77---7---77---7-|
A--2---222222---2---22---2---22---2---7---777777---7---77---7---77---7-|
E--0---000000---0---00---0---00---0---5---555555---5---55---5---55---5-|
       ......       ..       ..           ......       ..       ..

E-----------------------------------------------------------------------|
B-----------------------------------------------------------------------|
G-----------------------------------------------------------------------|
D--9---999999---9---99---9---99---9/---5---555555---5---55---5---55---5-|
A--9---999999---9---99---9---99---9/---5---555555---5---55---5---55---5-|
E--7---777777---7---77---7---77---7/---3---333333---3---33---3---33---3-|
       ......       ..       ..            ......       ..       ..

E-------------------------------------------------|
B-------------------------------------------------|
G-------------------------------------------------|
D--2---222222---2---22---2---22---2---7777-777777-|
A--2---222222---2---22---2---22---2---7777-555555-|
E--0---000000---0---00---0---00---0---5555-555555-|
       ......       ..       ..       ....


Refrain:

E--------------------------------------------------|
B--------------------------------------------------|
G-------------------------77777777-----------------|
D-99999999----55555555----77777777----77777777-----|
A-99999999----55555555----55555555----77777777-----|
E-77777777----33333333----------------55555555-----|


Legend:

. = Palm Mute
/ = Silde
Suggest correction
Give kudos to tab author, rate the tab!
1 2 3 4 5
comments
print report bad tab
1 comment total.
0 reply
manuel.bernhard 10 wrote on April 10 2013, 03:38 pm

probier das zwischenspiel doch mal so:

E |------------5---------| |--------------------------------|
B |---5-7-5--7---7--5--7-| |3-3-3-3-3-5-3-/7--7-7-7-7-5-3-0-|
G |4-7-------------------| ... |--------------------------------|
D |----------------------| |--------------------------------|
A |----------------------| |--------------------------------|
E |----------------------| |--------------------------------|

ansonten alles top! :)

guest
You may want to rate the tab now too:
select rating
Please do not post tabs as comments. Select "correction" instead!