Oops, an error
Loading. Please wait.

Frei Wild Tab

version 1
version 1

Whole song

Interactive

6,368 views 1 this week
no commentswrite comment
1 2 3 4 5
please rate
add to favorites
launch autoscroll
font size
0
reset
how to read this tab
guitar tuner
Tab Pro tools
  • play this tab
  • loop segment
  • change instrument
  • show fretboard
  • metronome
×
Best way to learn
"Frei Wild"
Autoscroll
slow
fast
+/-
esc
set tempo
stop
Contributor
Difficulty
intermediate
                            Artist : Frei.Wild
                            Song   : Frei.Wild
                            Album  : Hart am Wind
_____________________________________________________________________________
-Intro: (Guitar 1/2)
e----------------------|---------------------|
B----------------------|---------------------|
G--5-xx-5-xx-5-xx-5-xx-|---------------------|
D--5-xx-5-xx-5-xx-5-xx-|-6-xx-6-xx-6-xx-6-xx-|
A--3-xx-3-xx-3-xx-3-xx-|-6-xx-6-xx-6-xx-6-xx-|
E----------------------|-4-xx-4-xx-4-xx-4-xx-|

e----------------------|------------------|
B----------------------|------------------|
G----------------------|-5-xx-5-xx-5/8888-|
D--8-xx-8-xx-8-xx-8-xx-|-5-xx-5-xx-5/8888-|
A--8-xx-8-xx-8-xx-8-xx-|-3-xx-3-xx-3/6666-|
E--6-xx-6-xx-6-xx-6-xx-|------------------|

e----------------------|---------------------|
B----------------------|---------------------|
G--5-xx-5-xx-5-xx-5-xx-|---------------------|
D--5-xx-5-xx-5-xx-5-xx-|-6-xx-6-xx-6-xx-6-xx-|
A--3-xx-3-xx-3-xx-3-xx-|-6-xx-6-xx-6-xx-6-xx-|
E----------------------|-4-xx-4-xx-4-xx-4-xx-|

e----------------------|-----------------|
B----------------------|-----------------|
G----------------------|-5-xx-5-xx-55555-|
D--8-xx-8-xx-8-xx-8-xx-|-5-xx-5-xx-55555-|
A--8-xx-8-xx-8-xx-8-xx-|-3-xx-3-xx-33333-|
E--6-xx-6-xx-6-xx-6-xx-|-----------------|
_____________________________________________________________________________

-Riff:
  C                     Gis                   b                     C         Dis
e-----------|----------|----------|----------|----------|----------|-------------|
B-----------|----------|----------|----------|----------|----------|-------------|
G-----------|----------|----------|----------|----------|----------|-------------|
D-----------|----------|----------|----------|----------|----------|-------------|
A--3--5-6-5-|-3--5-6-5-|-3--5-6-5-|-3--5-6-5-|-3--5-6-5-|-6--6-6-5-|-3--3-3-6-3--|
E-----------|----------|----------|----------|----------|----------|-------------|

   C                    Gis                   b                     C          Dis
e-----------|----------|----------|----------|----------|----------|----------8^-|
B-----------|----------|----------|----------|----------|----------|-------------|
G--5--7-8-7-|-5--7-8-7-|-5--7-8-7-|-5--7-8-7-|-5--7-8-7-|-8--8-8-7-|-5--5-5-8----|
D-----------|----------|----------|----------|----------|----------|-------------|
A-----------|----------|----------|----------|----------|----------|-------------|
E-----------|----------|----------|----------|----------|----------|-------------|

-Verse1:

C                          Gis
Wir sind die Band, die bis heut noch keiner kennt
b                          C         C Dis
vier junge Typen, wir sind Frei.Wild
C
doch wirds nicht so bleiben
    Gis
Ihr werdet es schon sehn
          b
auf welch grossen Buehnen
       C
wir in kurzer Zeit schon stehn

-Chorus:

e----------|---------|-----|---------|---------|---------|---------|
B----------|---------|-----|---------|---------|---------|---------|
G----------|-8-8-8-8-|-8---|---------|---------|---------|-5-5-5-5-|
D--6-6-6-6-|-8-8-8-8-|-8---|-6-6-6-6-|-5-5-5-5-|-8-8-8-8-|-5-5-5-5-|
A--6-6-6-6-|-6-6-6-6-|-6---|-6-6-6-6-|-5-5-5-5-|-8-8-8-8-|-3-3-3-3-|
E--4-4-4-4-|---------|-----|-4-4-4-4-|-3-3-3-3-|-6-6-6-6-|---------|
             .
e----------|---------|---------|---------|---------|---------|---------|---------|---------|
B----------|---------|---------|---------|---------|---------|---------|---------|---------|
G--5-5-5-5-|-5---5---|---------|---------|-5-5-5-5-|-5-5-5-5-|-5-5-5-3-|-5-5-5-5-|-5-8-8-8-|
D--5-5-5-5-|-5---5-8-|-6-6-6-6-|-5-5-5-5-|-5-5-5-5-|-5-5-5-5-|-5-5-5-3-|-5-5-5-5-|-5-8-8-8-|
A--3-3-3-3-|-3---3-8-|-6-6-6-6-|-5-5-5-5-|-3-3-3-3-|-3-3-3-3-|-3-3-3-1-|-3-3-3-3-|-3-6-6-6-|
E----------|-------6-|-4-4-4-4-|-3-3-3-3-|---------|---------|---------|---------|---------|

-Riff

-Verse2:
C                              Gis
Onkelz covern und unsre eignen Lieder schrein,
       b
sollte einst in fernster Zukunft
     C                C Dis
das Groesste fuer uns sein.
     C
Wir spielen unsern Deutschrock,
         Gis
ja eben das, was uns gefaellt,
    b                           C
und ihr seid unsre Freunde, ja, ihr seid unsre Welt.

-Chorus

-solo:
i haven't tabbed the solo jet. sorry, i'll make it soon.

-Chorus (everything 2 steps up. bsp: --5-- -> --7-- ) without the last 7 powerchords

short break

-intro (everything 2 steps up. bsp: --5-- -> --7-- )

-Chorus (everything 2 steps up. bsp: --5-- -> --7-- ) without the last 7 powerchords




If something isn't correct, please write on icq 469542074 or comment.
have fun :)
comments
We did not receive enough feedback on this tab! Please rate:
print report bad tab
1 2 3 4 5
I want to post or [tab]
guest
You may want to rate the tab now too:
select rating
Please do not post tabs as comments. Select "correction" instead!