Oops, an error
Loading. Please wait.

Rueckgrat Und Moral Tab

5,664 views 6 this week
no commentswrite comment
1 2 3 4 5
please rate
add to favorites
launch autoscroll
font size
0
reset
how to read this tab
guitar tuner
Autoscroll
slow
fast
+/-
esc
set tempo
stop
Help us to improve Ultimate-Guitar.com Take our survey!
×
Lied: Rueckgrat und Moral
Band: Frei.Wild

Fuer den Rhythmus vor allem fuer den Vers einfach das Lied anhören

Vers:

E---5-5--5-5-5--5-5-5--5-5-5--5----------------------------------------|
B-o-5-5--5-5-5--5-5-5--5-5-5--5----------------------------------------|
G---7-7--7-7-7--7-7-7--7-7-7--7----------------------------------------|
D---7-7--7-7-7--7-7-7--7-7-7--7--8-8--8-8-8--8-8-8--8-8-8--8-----------|
A-o-5-5--5-5-5--5-5-5--5-5-5--5--8-8--8-8-8--8-8-8--8-8-8--8-----------|
E--------------------------------6-6--6-6-6--6-6-6--6-6-6--6-----------|

E---------------------------------5-5--5-5-5--5-5-5--5-5-5--5----------|
B---------------------------------5-5--5-5-5--5-5-5--5-5-5--5--------o-|
G---------------------------------7-7--7-7-7--7-7-7--7-7-7--7----------|
D---1010-101010-101010-101010-10--7-7--7-7-7--7-7-7--7-7-7--7----------|
A---1010-101010-101010-101010-10--5-5--5-5-5--5-5-5--5-5-5--5--------o-|
E---8-8--8-8-8--8-8-8--8-8-8--8----------------------------------------|

E---5-5--5-5-5--5-5-5--5-5-5--5----------------------------------------|
B---5-5--5-5-5--5-5-5--5-5-5--5----------------------------------------|
G---7-7--7-7-7--7-7-7--7-7-7--7----------------------------------------|
D---7-7--7-7-7--7-7-7--7-7-7--7--8-8--8-8-8--8-8-8--8-8-8--8-----------|
A---5-5--5-5-5--5-5-5--5-5-5--5--8-8--8-8-8--8-8-8--8-8-8--8-----------|
E--------------------------------6-6--6-6-6--6-6-6--6-6-6--6-----------|

E----------------------------------------------------------------------|
B----------------------------------------------------------------------|
G---------------------------------5-5--5-5-5--5-5-5--5-5-5--5----------|
D---3-3--3-3-3--3-3-3--3-3-3--3---5-5--5-5-5--5-5-5--5-5-5--5----------|
A---3-3--3-3-3--3-3-3--3-3-3--3---3-3--3-3-3--3-3-3--3-3-3--3----------|
E---1-1--1-1-1--1-1-1--1-1-1--1----------------------------------------|

E---5-5--5-5-5--5-5-5--5-5-5--5----------------------------------------|
B---5-5--5-5-5--5-5-5--5-5-5--5----------------------------------------|
G---7-7--7-7-7--7-7-7--7-7-7--7----------------------------------------|
D---7-7--7-7-7--7-7-7--7-7-7--7--8-8--8-8-8--8-8-8--8-8-8--8-----------|
A---5-5--5-5-5--5-5-5--5-5-5--5--8-8--8-8-8--8-8-8--8-8-8--8-----------|
E--------------------------------6-6--6-6-6--6-6-6--6-6-6--6-----------|

E---------------------------------5-5--5-5-5--5-5-5--5-5-5--5----------|
B---------------------------------5-5--5-5-5--5-5-5--5-5-5--5----------|
G---------------------------------7-7--7-7-7--7-7-7--7-7-7--7----------|
D---1010-101010-101010-101010-10--7-7--7-7-7--7-7-7--7-7-7--7----------|
A---1010-101010-101010-101010-10--5-5--5-5-5--5-5-5--5-5-5--5----------|
E---8-8--8-8-8--8-8-8--8-8-8--8----------------------------------------|

Refrain:

E---5-5-5-5-5-5-5-5----------------------------------------------------|
B---5-5-5-5-5-5-5-5----------------------------------------------------|
G---7-7-7-7-7-7-7-7------------------------------------5-5-5-5-5-5-5-5-|
D---7-7-7-7-7-7-7-7--8-8-8-8-8-8-8-8--3-3-3-3-3-3-3-3--5-5-5-5-5-5-5-5-| x4
A---5-5-5-5-5-5-5-5--8-8-8-8-8-8-8-8--3-3-3-3-3-3-3-3--3-3-3-3-3-3-3-3-| 
E--------------------6-6-6-6-6-6-6-6--1-1-1-1-1-1-1-1------------------|

Solo: (2. Gitarre spielt Refrain)

E----------------------------------------------------------------------|
B----------------------------------------------------------------------|
G----------------------------------------------------------------------|
D---0-0-0-2-3-----0-2-3-----0-2-3-2-0-2-3-2-0-0-0-2-3-----0-2-3--------|
A------------1-1-------------------------------------1-1---------------| 
E----------------------1-1-------------------------------------1-1-----|

E----------------------------------------------------------------------|
B----------------------------------------------------------------------|
G--------------------------------2-0-----------------------------------|
D---0-0-0-2-3-----0-2-3-----0-2-3-----3-2-12-12-12-14-15-------12-14-15|
A------------1-1-----------------------------------------13-13---------| 
E----------------------1-1---------------------------------------------|

E----------------------------------------------------------------------|
B----------------------------------------------------------------------|
G----------------------------------------------------------------------|
D---------12-14-15-14-12-14-15-14-12-12-12-14-15-------12-14-15--------|
A------------------------------------------------13-13-----------------| 
E---13-13-------------------------------------------------------13-13--|

E----------------------------------------------------------------------|
B----------------------------------------------------------------------|
G------------14-12-----------------------------------------------------|
D---12-14-15-------15-14-12--------------------------------------------|
A----------------------------------------------------------------------| 
E----------------------------------------------------------------------|

Vers

Refrain

Bass-Solo

Zwischenspiel: 

E----------------------------------------------------------------------|
B--------------------------------------------------------------------^-|
G---7-7-7-7-7-7-7-7------------------------------------5-5-5-5-5-5-5-5-|
D---7-7-7-7-7-7-7-7--8-8-8-8-8-8-8-8--3-3-3-3-3-3-3-3--5-5-5-5-5-5-5-5-| x2
A---5-5-5-5-5-5-5-5--8-8-8-8-8-8-8-8--3-3-3-3-3-3-3-3--3-3-3-3-3-3-3-3-| 
E--------------------6-6-6-6-6-6-6-6--1-1-1-1-1-1-1-1------------------|
pm......................................................................
    
E----------------------------------------------------------------------|
B-----------------^----------------^----------------^----------------^-|
G--/7-7-7-7-7-7-7-7\----------------------------------/5-5-5-5-5-5-5-5-|
D--/7-7-7-7-7-7-7-7\-8-8-8-8-8-8-8-8-\3-3-3-3-3-3-3-3-/5-5-5-5-5-5-5-5-| x2
A--/5-5-5-5-5-5-5-5\-8-8-8-8-8-8-8-8-\3-3-3-3-3-3-3-3-/3-3-3-3-3-3-3-3-| 
E--------------------6-6-6-6-6-6-6-6-\1-1-1-1-1-1-1-1------------------|
pm......................................................................

Refrain 2x

Legende:
/: Slide nach oben
\: Slide nach unten
^: Diese Note wird nich palm muted gespielt, betont
o: Wiederholungszeichen 
pm: Palm Muted
Suggest correction
Give kudos to tab author, rate the tab!
1 2 3 4 5
comments
print report bad tab
guest
You may want to rate the tab now too:
select rating
Wanna post a correction for this tab? Suggest correction