Oops, an error
Loading. Please wait.

Sieger Stehen Da Auf Wo Verlierer Liegen Bleiben Tab

version 1
version 1

Whole song

Interactive

15,454 views 3 this week
no commentswrite comment
1 2 3 4 5
please rate
add to favorites
launch autoscroll
font size
0
reset
how to read this tab
guitar tuner
Autoscroll
slow
fast
+/-
esc
set tempo
stop
Help us to improve Ultimate-Guitar.com Take our survey!
×
Frei.Wild – Sieger Stehen Da Auf, Wo Verlierer Liegen Bleiben

------------------------------
TUNING: STANDARD EADGBE

FOR QUESTIONS: lukas.ilikca@googlemail.com

BE SURE WATCHING MY COVER-VIDEO on YOUTUBE: 

http://www.youtube.com/watch?v=wQc68sLRHro
------------------------------

INTRO	
E—4-4------2-2—-2-2-2-2-2-2-|		
A—6-6--2---4-4--4-4-4-4-4-4-|		
D—6-6--4---4-4--4-4-4-4-4-4-|  x8	
G------4--------------------|		
B---------------------------|		
e---------------------------|		

E-0-0--0--0-0--0-0-0-0-0-0---2-2—-2-2-2-2-2-2-|
A-2-2--2--2-2--2-2-2-2-2-2---4-4--4-4-4-4-4-4-|
D-2-2--2--2-2--2-2-2-2-2-2—--4-4--4-4-4-4-4-4-|
G---------------------------------------------|
B---------------------------------------------|
e---------------------------------------------|


CHORUS I
E-4-4-4-4--0-0-0-0--2-2-2-2--4-4-4-4-|
A-6-6-6-6--2-2-2-2--4-4-4-4--6-6-6-6-|
D-6-6-6-6--2-2-2-2--4-4-4-4--6-6-6-6-|
G------------------------------------|
B------------------------------------|
e------------------------------------|

E-4-4-4-4--0-0-0-0--2-2-2-2-2-2-2-2-|
A-6-6-6-6--2-2-2-2--4-4-4-4-4-4-4-4-|
D-6-6-6-6--2-2-2-2--4-4-4-4-4-4-4-4-|   x2
G-----------------------------------|
B-----------------------------------|
e-----------------------------------|

E-4-4-4-4--0-0-0-0--4-4-4-4--0-0-0-0--4-4-4-4--0-0-0-0--2-2-2-2-2-2-2-2-|
A-6-6-6-6--2-2-2-2--6-6-6-6--2-2-2-2--6-6-6-6--2-2-2-2--4-4-4-4-4-4-4-4-|
D-6-6-6-6--2-2-2-2--6-6-6-6--2-2-2-2--6-6-6-6--2-2-2-2--4-4-4-4-4-4-4-4-|
G-----------------------------------------------------------------------|
B-----------------------------------------------------------------------|
e-----------------------------------------------------------------------|

E-0--2--4-x-x-x-x-x--4-x-x-x-x-x--4-x-x-x-x-x--4-x-x-x-x-|
A-2--4--6-x-x-x-x-x--6-x-x-x-x-x--6-x-x-x-x-x--6-x-x-x-x-|
D-2--4--6-x-x-x-x-x--6-x-x-x-x-x—-6-x-x-x-x-x--6-x-x-x-x-|
G--------------------------------------------------------|
B--------------------------------------------------------|
e--------------------------------------------------------|








VERSE
E-4-4-4-4-4-4-4-4-4-4-4-4-4-4-4-4--0-0-0-0--2-2-2-2--4-4-4-4-4-4-4-4-|
A-6-6-6-6-6-6-6-6-6-6-6-6-6-6-6-6--2-2-2-2--4-4-4-4--6-6-6-6-6-6-6-6-|
D-6-6-6-6-6-6-6-6-6-6-6-6-6-6-6-6--2-2-2-2--4-4-4-4--6-6-6-6-6-6-6-6-|
G--------------------------------------------------------------------|   x2
B--------------------------------------------------------------------|
e--------------------------------------------------------------------|


E-0-0-0-0-0-0-0-0-0-0-0-0-0-0-0-0--2-2-2-2-2-2-2-2-2-2-2-2-2-2-(2-2)-|
A-2-2-2-2-2-2-2-2-2-2-2-2-2-2-2-2--4-4-4-4-4-4-4-4-4-4-4-4-4-4-(4-4)-|
D-2-2-2-2-2-2-2-2-2-2-2-2-2-2-2-2--4-4-4-4-4-4-4-4-4-4-4-4-4-4-(4-4)-|
G--------------------------------------------------------------------|  x2
B--------------------------------------------------------------------|
e--------------------------------------------------------------------|


CHORUS I


SOLO
E-4-4-4-4-4-4-4-4-4-4-4-4-4-4-4-4--2-2-2-2-2-2-2-2--4-4-4-4-4-4-4-4-|
A-6-6-6-6-6-6-6-6-6-6-6-6-6-6-6-6--4-4-4-4-4-4-4-4--6-6-6-6-6-6-6-6-|
D-6-6-6-6-6-6-6-6-6-6-6-6-6-6-6-6--4-4-4-4-4-4-4-4--6-6-6-6-6-6-6-6-|   x2
G-------------------------------------------------------------------|
B-------------------------------------------------------------------|
e-------------------------------------------------------------------|

E-0-0-0-0-0-0-0-0-0-0-0-0-0-0-0-0--2-2-2-2-2-2-2-2-2-2-2-2-2-2-2-2-|
A-2-2-2-2-2-2-2-2-2-2-2-2-2-2-2-2--4-4-4-4-4-4-4-4-4-4-4-4-4-4-4-4-|
D-2-2-2-2-2-2-2-2-2-2-2-2-2-2-2-2--4-4-4-4-4-4-4-4-4-4-4-4-4-4-4-4-| 
G------------------------------------------------------------------|   x2
B------------------------------------------------------------------|
e------------------------------------------------------------------|


CHORUS II (CHORUS I 2 STEPS HIGHER)
Suggest correction
Give kudos to tab author, rate the tab!
1 2 3 4 5
comments
print report bad tab
guest
You may want to rate the tab now too:
select rating
Wanna post a correction for this tab? Suggest correction