Oops, an error
Loading. Please wait.

Weil Du Mich Damals Nur Verarscht Hast Tab

14,311 views 1 this week
no commentswrite comment
1 2 3 4 5
x 4
add to favorites
launch autoscroll
font size
0
reset
how to read this tab
guitar tuner
Autoscroll
slow
fast
+/-
esc
set tempo
stop
Help us to improve Ultimate-Guitar.com Take our survey!
×
Author
Difficulty
novice
Artist: Frei.Wild
Song:   Weil du mich damals nur verarscht hast
Album:  Gegengift

Intro
|---------------------------------------------------------------------------|
|---------------------------------------------------------------------------|
|---------------------------------------------------------------------------|
|---------------------12-12-12-14-12--11-11--11-12-11-9-7--9-9-9-11-9-------|
|--9-9-11-11-12-11-9--------------------------------------------------12-11-|
----------------------------------------------------------------------------|

|----------------------------------------------------------------------|
|----------------------------------------------------------------------|
|----------------------------------------------------------9-9-9-11-9--|
|---------------------12-12-12-14-12--11-11--11-12-11-9-7--------------|
|--9-9-11-11-12-11-9---------------------------------------------------|
|----------------------------------------------------------------------|


Strophe
|--0---2---0---0---x2---|--2---2---0---0--|x2
|--2---3---0---2--------|--2---3---2---0--|
|--2---2---1---2--------|--2---2---2---1--|
|--2---0---2---2--------|--4---0---2---2--|
|--0---0---2---0--------|--4---0---0---2--|
|----------0------------|--2-----------0--|


Refrain
|-----------------------------------------------------------------------|
|-----------------------------------------------------------------------|
|-----------------------------------------------------------------------|
|-----------77777777----------99999999-----------77777777----------999--|
|--44444444-55555555-77777777-77777777--44444444-55555555-77777777-777--|
|--22222222----------55555555-----------22222222----------55555555------|


Akkustik Part
|--2--2--2---2-2---2--2--2---2-2---2--2--2---2-2---2--2--2---2-2--|
|--2--2--2---2-2---3--3--3---3-3---2--2--2---2-2---3--3--3---3-3--|
|--2--2--2---2-2---2--2--2---2-2---2--2--2---2-2---2--2--2---2-2--|
|--4--4--4---4-4---0--0--0---0-0---4--4--4---4-4---0--0--0---0-0--|
|--4--4--4---4-4-------------------4--4--4---4-4------------------|
|--2--2--2---2-2-------------------2--2--2---2-2------------------|

|--0--0--0---0-0---0--0--0-----------------|
|--2--2--2---2-2---0--0--0---0-0-0--0-0-0--|
|--2--2--2---2-2---1--1--1---1-2-2--2-1-1--|
|--2--2--2---2-2---2--2--2---2-2-2--2-2-2--|
|--0--0--0---0-0---2--2--2---2-2-2--2-2-2--|
|------------------------------------------|


@ Christian Knorr
Suggest correction
comments
print report bad tab
guest
You may want to rate the tab now too:
select rating
Wanna post a correction for this tab? Suggest correction