Oops, an error
Loading. Please wait.

Copilot Tab

216 views 1 this week
no commentswrite comment
1 2 3 4 5
2 more votes to show rating
add to favorites
launch autoscroll
font size
0
reset
how to read this tab
guitar tuner
Autoscroll
slow
fast
+/-
esc
set tempo
stop
Help us to improve Ultimate-Guitar.com Take our survey!
×
Author
Difficulty
novice
Noitz: - Version ohne Kapodaster, genießt es!
       - Die Punkt-Abstände zwischen den Textzeilen der ersten Strophe und
         des Refrains sind lediglich zur Orientierung beim Singen gedacht ;)

         -------- Die kompletten Lyrics findet ihr weiter unten --------

-----------------------------------------------------------------------------
                             Copilot - Frei Will Ich www.frei-willich.de
-----------------------------------------------------------------------------

Tuning: normal


Intro/Vers:

- Wiederholt das hier als Intro und während der Strophen!

e|--------------|-------------|--------------|---------------|
B|-------1------|-------1-----|--------1-----|-------1-------|
G|-----0---0----|-----0---0---|------0---0---|-----0---------|
D|---2----------|---0---------|----2-------2-|---2-----------|
A|-3---------3--|-2---------2-|-0------------|-0--------0--2-|
E|--------------|-------------|--------------|---------------|

   Dein Traum...........ist es zu fliegen
   Mit mir..............der Sonne entgegen
   Hinauf............bis zur Wolke Sieben
   Im Steilflug...........zu dir (ersten Ton des letzten Taktes ausklingen lassen!)

------------------------------------------------------------------------|
                G|------------------------------------------------------|
 Bassbridge:    D|----5h7-7-7-5h7-5-------------------------------------|
                A|-------------------7-5--------------------------------|
                E|------------------------------------------------------|
------------------------------------------------------------------------|
Refrain:

       e|-0----0--0-0-|-1-1-1--1--1-1-|-------------|---------------|
       B|-1----1--1-1-|-1-1-1--1--1-1-|-1----1-1--1-|---------------|
       G|-2----2--2-2-|-2-2-2--2--2-2-|-0----0-0--0-|-0--0-0--0-0-0-|
       D|-2----2--2-2-|-3-3-3--3--3-3-|-2----2-2--2-|-0--0-0--0-0-0-|
       A|-0----0--0-0-|-3-3-3--3--3-3-|-3----3-3--3-|-2--2-3--3-2h3-|
       E|-------------|-1-1-1--1--1-1-|-------------|---------------|

Ich frage dich ... bist du mein .... Co-pilot ................. Wir fliegen
      ... beide ........... bis in den Tod .. in den Tod ........ Wir
      ... schweben ........ der Sonne entgegen|bist du bereit?  Wir müssen

      ... los ................ es wird Zeit, es wird Zeit (ersten Anschlag des letzten 
Taktes ausklingen lassen!)



Verse 1: Dein Traum ist es zu fliegen
         Mit mir der Sonne entgegen
         Hinauf bis zur Wolke 7
         Im Steilflug zu dir

Refrain: Ich frage dich
         Bist du mein Copilot
         Wir fliegen beide bis in den Tod, in den Tod
         Wir schweben der Sonne entgegen
         Bist du bereit? Wir müssen los
         Es wird Zeit, es wird Zeit

Verse 2: Mein Wunsch dich einmal Lächeln zu sehen
         Im Sternenhimmel mit dir unterzugehen
         Über den Wolken zu schweben
         Ein Kilometer so weit entfernt, entfernt, entfernt

Verse 3: Der Weg ist lang, wir müssen zurück
         Die Zeit im Nacken, die uns erdrückt
         Ich würde jeden Tag mit dir fliegen
         Eintausendmale und noch mehr

************************************
| /   slide up
| \   slide down
| h   hammer-on
| p   pull-off
************************************
Suggest correction
Give kudos to tab author, rate the tab!
1 2 3 4 5
comments
print report bad tab
guest
You may want to rate the tab now too:
select rating
Wanna post a correction for this tab? Suggest correction