Oops, an error
Loading. Please wait.

Ein Wiedersehen Bass Tab

50 views 1 this week
no commentswrite comment
1 2 3 4 5
please rate
add to favorites
launch autoscroll
font size
0
reset
guitar tuner
Autoscroll
slow
fast
+/-
esc
set tempo
stop
Help us to improve Ultimate-Guitar.com Take our survey!
×
Author
Difficulty
novice
-------------------------------------------------------------------------------
                             Ein Wiedersehen - Frei Will ich
-------------------------------------------------------------------------------

-> Bass Einstieg nach dem Pfeifen

-----------------------------
Bass Strophe:

  F#m       E         D            D | ->       
G|--------|--------|--------|--------|--------|--------|--------|--------|
D|-4------|-2------|--------|--------|-4------|-2--2h4-|-0------|----0--2|
A|--------|----2-4-|-5------|-----4h5|--------|--------|--------|--2-----|
E|--------|--------|--------|---5----|--------|--------|--------|--------|

-----------------------------
Bass Refrain:
     
G|--------------|--------------|--------------|--------------|
D|-4-4---4------|-2--2----2----|--------------|--------------|
A|------4-----4-|--------2-2-4-|-5----5-5----5|-5----5-5h4--4|  
E|--------------|--------------|--------------|------------5-|

G|--------------|--------------|--------------|--------------|
D|-4--4---4-----|-2-2---2------|------7-----7-|-7------------|
A|------4-----4-|------2-2-4---|-5-------5----|------5-5/4--4|
E|--------------|--------------|--------------|------------5-|

------------------------------
Bass Endteil:

  F#m       E        D         D      
G|--------|--------|--------|--------|
D|-4------|-2--2h4-|-0------|----0--2|  3x
A|--------|--------|--------|--2-----|
E|--------|--------|--------|--------|

  F#m       E        D                 F#m      
G|--------|--------|--------|--------|--------|
D|-4------|-2------|-12-----|--------|-4------|  
A|--------|--------|--------|-(12)---|--------|
E|-2------|-0------|-10-----|-(10)---|-2------|
Suggest correction
Give kudos to tab author, rate the tab!
1 2 3 4 5
comments
print report bad tab
guest
You may want to rate the tab now too:
select rating
Wanna post a correction for this tab? Suggest correction