Oops, an error
Loading. Please wait.

Ein Wiedersehen Tab

163 views 1 this week
no commentswrite comment
1 2 3 4 5
2 more votes to show rating
add to favorites
launch autoscroll
font size
0
reset
how to read this tab
guitar tuner
Autoscroll
slow
fast
+/-
esc
set tempo
stop
Help us to improve Ultimate-Guitar.com Take our survey!
×
Author
Capo
2nd fret
--------------------------------------------------------------------
                    Ein Wiedersehen - Frei Will Ich
                          Album: 128 Hertz
                         www.frei-willich.de
--------------------------------------------------------------------

Tuning: normal
CAPO: 2. Bund

Git.1 Akustik
Git.2 Overdrive

   F#m  E   D
e|--2---4---5----|
B|--2---5---5----|
G|--2---4---2----|
D|--4---2---4----|
A|--4-------5----|
E|--2------------|

Intro/Vers: Git.1       

F#m         E           D       D
     Kalter Blick, kein Fragen
F#m        E           D        D
     Lebensmut so ausgehaucht
F#m                  E             D              D
     Du schaust mich an und ich versuche nicht zu sagen
           F#m         E               D          D
     Still schweigend, schauend an die Wand.

Refrain: Git. 1 & Git. 2

             F#m    E              D         D
     Ich würde  Ich würde für dich sterben
               F#m         E            D         D
     Ich würde alle Qualen für dich übernehmen
               F#m   E              D        D    
     Doch eine Frage  die bleibt da offen.
                      F#m       E              D        D
     Wann und wie und wo werden wir uns wieder sehen? 
                           F#m    E     D      D
     Werden wir uns wieder sehen?


Vers 2: Git.1 & Git.2

Git. 2

    F#m   E  |<---------D-------->|
e|--2-2--4-4----------5-----5-----|
B|--2-2--5-5------------5----5----|
G|--2-2--4-4------2-------2---2---|
D|--4-4--2-2----4---4-------------|
A|--4-4-------5-------------------|
E|--2-2---------------------------|

Zeitlebens ist es ein Geschenk
Höhen und Tiefen überlebt
Ziele gesucht, Ziele gefunden Einigkeit
Danke für Alles, danke für die Zeit

Refrain: Git.1 & Git.2

Ich würde Ich würde für dich sterben
Ich würde alle Qualen für dich übernehmen
*Doch eine Frage, die bleibt da offen.
Wann und wie und wo werden wir uns wieder sehen? 
Werden wir uns wieder sehen?
(*Start Solo)

Solo: Git.2

   
e|-------------------------------------14---17-14------------------|
B|-------------------------------------17b--------17-14------------|
G|------------------------------------------------------16b16p14---|
D|-----14----------14-------------------------------------------16-|
A|--/16----16--16-16-----14/16-------------------------------------|
E|-----------------------------------------------------------------|

e|---------14---17p14----------------------------------------------|
B|---------17b--------17-14----------------------------------------|
G|--14\---------------------16br16p14--------14--16b16p14----------|
D|----------------------------------16----/16--16--------16--------|
A|-----------------------------------------------------------------|
E|-----------------------------------------------------------------|

e|-------------------------------|
B|-------------------------------|
G|-------------------------------|
D|--14h16-14---------------------|
A|----------16-14\12-14p12-------|
E|-------------------------14----|

Vers: Git.1 & Git.2

Blauer Himmel ein schmaler Weg
Ein Abschied ohne ein Wort
Es geht dir gut. Ich weiß es.
Du bist sicherlich an einem besseren Ort! 
an einem besseren Ort!
an einem besseren Ort! 
an einem besseren Ort!
an einem besseren Ort!

********************
*  h = hammer-on   *
*  p = pull-off    *
*  b = bend        *
*  / = slide-up    *
*  \ = slide-down  *
********************
Suggest correction
Give kudos to tab author, rate the tab!
1 2 3 4 5
comments
print report bad tab
guest
You may want to rate the tab now too:
select rating
Wanna post a correction for this tab? Suggest correction