Oops, an error
Loading. Please wait.

Capsize tab

124 views 3 this week
no commentswrite comment
1 2 3 4 5
3 more votes to show rating
add to favorites
×
Save as Personal and add changes to this tab that will be seen only by you. Learn more ›
×
You can save this tab as Personal to edit and correct it or add notes. All changes will be seen only by you. Learn more »
launch autoscroll
font size
0
reset
how to read this tab
guitar tuner
edit
Autoscroll
slow
fast
+/-
esc
set tempo
stop
Author
Difficulty
[Intro]
  Cm       Ab        Eb         Gm    Cm       Ab        Eb      Gm
e|-3--3--3---------|-----------------|-----------------|-----------------|
B|---------4--4--4-|-----------------|-4--4--4-4--4--4-|-----------------|
G|-5--5--5-5--5--5-|-8--8--8-8--7--7-|---------5--5--5-|-8--8--8-7--7--7-|
D|-----------------|-8--8--8-8--8--8-|-5--5--5---------|-8--8--8-5--5--5-|
A|-3--3--3---------|-6--6--6-6--5--5-|-3--3--3---------|-6--6--6-5--5--5-|
E|---------4--4--4-|-----------------|---------4--4--4-|-----------------|
   * ^ * ^ * ^ * ^   * ^ * ^ * ^ * ^   * ^ * ^ * ^ * ^   * ^ * ^ * ^ * ^

[Verse]
  Cm                                  Eb
e|-3--3--3-3--3--3-|-3--3--3-3--3--3-|-----------------|-----------------|
B|-----------------|-----------------|-4--4--4-4--4--4-|-4--4--4-4--4--4-|
G|-5--5--5-5--5--5-|-5--5--5-5--5--5-|-3--3--3-3--3--3-|-3--3--3-3--3--3-|
D|-----------------|-----------------|-----------------|-----------------|
A|-3--3--3-3--3--3-|-3--3--3-3--3--3-|-6--6--6-6--6--6-|-6--6--6-6--6--6-|
E|-----------------|-----------------|-----------------|-----------------|
   * ^ * ^ * ^ * ^   * ^ * ^ * ^ * ^   * ^ * ^ * ^ * ^   * ^ * ^ * ^ * ^

  Cm                                  Eb
e|-3--3--3-3--3--3-|-3--3--3-3--3--3-|-----------------|-----------------|
B|-----------------|-----------------|-4--4--4-4--4--4-|-4--4--4-4--4--4-|
G|-5--5--5-5--5--5-|-5--5--5-5--5--5-|-3--3--3-3--3--3-|-3--3--3-3--3--3-|
D|-----------------|-----------------|-----------------|-----------------|
A|-3--3--3-3--3--3-|-3--3--3-3--3--3-|-6--6--6-6--6--6-|-6--6--6-6--6--6-|
E|-----------------|-----------------|-----------------|-----------------|
   * ^ * ^ * ^ * ^   * ^ * ^ * ^ * ^   * ^ * ^ * ^ * ^   * ^ * ^ * ^ * ^

[Pre-Chorus]
  Cm                 Bb                Gm                Ab
e|-----------------|-----------------|-----------------|-----------------|
B|-4--4--4-4--4--4-|-3--3--3-3--3--3-|-----------------|-----------------|
G|-5--5--5-5--5--5-|-3--3--3-3--3--3-|-3--3--3-3--3--3-|-5--5--5-5---5---|
D|-----------------|-----------------|-5--5--5-5--5--5-|-6--6--6-6---6---|
A|-3---------------|-1---------------|-----------------|-----------------|
E|-----------------|-----------------|-3---------------|-4---------------|
   * ^ * ^ * ^ * ^   * ^ * ^ * ^ * ^   * ^ * ^ * ^ * ^   * ^ * ^ * ^ * ^

[Chorus]
  Cm       Ab        Eb         Gm    Cm       Ab        Eb      Gm
e|-3--3--3---------|-----------------|-----------------|-----------------|
B|---------4--4--4-|-----------------|-4--4--4-4--4--4-|-----------------|
G|-5--5--5-5--5--5-|-8--8--8-8--7--7-|---------5--5--5-|-8--8--8-7--7--7-|
D|-----------------|-8--8--8-8--8--8-|-5--5--5---------|-8--8--8-5--5--5-|
A|-3--3--3---------|-6--6--6-6--5--5-|-3--3--3---------|-6--6--6-5--5--5-|
E|---------4--4--4-|-----------------|---------4--4--4-|-----------------|
   * ^ * ^ * ^ * ^   * ^ * ^ * ^ * ^   * ^ * ^ * ^ * ^   * ^ * ^ * ^ * ^

  Cm       Ab        Eb         Gm    Cm       Ab        Eb      Gm
e|-3--3--3---------|-----------------|-----------------|-----------------|
B|---------4--4--4-|-----------------|-4--4--4-4--4--4-|-----------------|
G|-5--5--5-5--5--5-|-8--8--8-8--7--7-|---------5--5--5-|-8--8--8-7--7--7-|
D|-----------------|-8--8--8-8--8--8-|-5--5--5---------|-8--8--8-5--5--5-|
A|-3--3--3---------|-6--6--6-6--5--5-|-3--3--3---------|-6--6--6-5--5--5-|
E|---------4--4--4-|-----------------|---------4--4--4-|-----------------|
   * ^ * ^ * ^ * ^   * ^ * ^ * ^ * ^   * ^ * ^ * ^ * ^   * ^ * ^ * ^ * ^

[Instrumental]
  Cm       Ab        Eb         Gm    Cm       Ab        Eb      Gm
e|-3--3--3---------|-----------------|-----------------|-----------------|
B|---------4--4--4-|-----------------|-4--4--4-4--4--4-|-----------------|
G|-5--5--5-5--5--5-|-8--8--8-8--7--7-|---------5--5--5-|-8--8--8-7--7--7-|
D|-----------------|-8--8--8-8--8--8-|-5--5--5---------|-8--8--8-5--5--5-|
A|-3--3--3---------|-6--6--6-6--5--5-|-3--3--3---------|-6--6--6-5--5--5-|
E|---------4--4--4-|-----------------|---------4--4--4-|-----------------|
   * ^ * ^ * ^ * ^   * ^ * ^ * ^ * ^   * ^ * ^ * ^ * ^   * ^ * ^ * ^ * ^

  Cm       Ab        Eb         Gm    Cm       Ab        Eb      Gm
e|-3--3--3---------|-----------------|-----------------|-----------------|
B|---------4--4--4-|-----------------|-4--4--4-4--4--4-|-----------------|
G|-5--5--5-5--5--5-|-8--8--8-8--7--7-|---------5--5--5-|-8--8--8-7--7--7-|
D|-----------------|-8--8--8-8--8--8-|-5--5--5---------|-8--8--8-5--5--5-|
A|-3--3--3---------|-6--6--6-6--5--5-|-3--3--3---------|-6--6--6-5--5--5-|
E|---------4--4--4-|-----------------|---------4--4--4-|-----------------|
   * ^ * ^ * ^ * ^   * ^ * ^ * ^ * ^   * ^ * ^ * ^ * ^   * ^ * ^ * ^ * ^

[Verse]
  Cm                          N.C.     Eb
e|-3--3--3-3--3--3-|-3--3--3---------|-----------------|-----------------|
B|-----------------|-----------------|-4--4--4-4--4--4-|-4--4--4-4--4--4-|
G|-5--5--5-5--5--5-|-5--5--5---------|-3--3--3-3--3--3-|-3--3--3-3--3--3-|
D|-----------------|-----------------|-----------------|-----------------|
A|-3--3--3-3--3--3-|-3--3--3---------|-6--6--6-6--6--6-|-6--6--6-6--6--6-|
E|-----------------|-----------------|-----------------|-----------------|
   * ^ * ^ * ^ * ^   * ^ * ^ * ^ * ^   * ^ * ^ * ^ * ^   * ^ * ^ * ^ * ^

  Cm                                  Eb
e|-3--3--3-3--3--3-|-3--3--3-3--3--3-|-----------------|-----------------|
B|-----------------|-----------------|-4--4--4-4--4--4-|-4--4--4-4--4--4-|
G|-5--5--5-5--5--5-|-5--5--5-5--5--5-|-3--3--3-3--3--3-|-3--3--3-3--3--3-|
D|-----------------|-----------------|-----------------|-----------------|
A|-3--3--3-3--3--3-|-3--3--3-3--3--3-|-6--6--6-6--6--6-|-6--6--6-6--6--6-|
E|-----------------|-----------------|-----------------|-----------------|
   * ^ * ^ * ^ * ^   * ^ * ^ * ^ * ^   * ^ * ^ * ^ * ^   * ^ * ^ * ^ * ^

[Pre-Chorus]
  Cm                 Bb                Gm                Ab
e|-----------------|-----------------|-----------------|-----------------|
B|-4--4--4-4--4--4-|-3--3--3-3--3--3-|-----------------|-----------------|
G|-5--5--5-5--5--5-|-3--3--3-3--3--3-|-3--3--3-3--3--3-|-5--5--5-5---5---|
D|-----------------|-----------------|-5--5--5-5--5--5-|-6--6--6-6---6---|
A|-3---------------|-1---------------|-----------------|-----------------|
E|-----------------|-----------------|-3---------------|-4---------------|
   * ^ * ^ * ^ * ^   * ^ * ^ * ^ * ^   * ^ * ^ * ^ * ^   * ^ * ^ * ^ * ^

[Chorus]
  Cm       Ab        Eb         Gm    Cm       Ab        Eb      Gm
e|-3--3--3---------|-----------------|-----------------|-----------------|
B|---------4--4--4-|-----------------|-4--4--4-4--4--4-|-----------------|
G|-5--5--5-5--5--5-|-8--8--8-8--7--7-|---------5--5--5-|-8--8--8-7--7--7-|
D|-----------------|-8--8--8-8--8--8-|-5--5--5---------|-8--8--8-5--5--5-|
A|-3--3--3---------|-6--6--6-6--5--5-|-3--3--3---------|-6--6--6-5--5--5-|
E|---------4--4--4-|-----------------|---------4--4--4-|-----------------|
   * ^ * ^ * ^ * ^   * ^ * ^ * ^ * ^   * ^ * ^ * ^ * ^   * ^ * ^ * ^ * ^

  Cm       Ab        Eb         Gm    Cm       Ab        Eb      Gm
e|-3--3--3---------|-----------------|-----------------|-----------------|
B|---------4--4--4-|-----------------|-4--4--4-4--4--4-|-----------------|
G|-5--5--5-5--5--5-|-8--8--8-8--7--7-|---------5--5--5-|-8--8--8-7--7--7-|
D|-----------------|-8--8--8-8--8--8-|-5--5--5---------|-8--8--8-5--5--5-|
A|-3--3--3---------|-6--6--6-6--5--5-|-3--3--3---------|-6--6--6-5--5--5-|
E|---------4--4--4-|-----------------|---------4--4--4-|-----------------|
   * ^ * ^ * ^ * ^   * ^ * ^ * ^ * ^   * ^ * ^ * ^ * ^   * ^ * ^ * ^ * ^

[Instrumental]
  Cm       Ab        Eb         Gm    Cm       Ab        Eb      Gm
e|-3--3--3---------|-----------------|-----------------|-----------------|
B|---------4--4--4-|-----------------|-4--4--4-4--4--4-|-----------------|
G|-5--5--5-5--5--5-|-8--8--8-8--7--7-|---------5--5--5-|-8--8--8-7--7--7-|
D|-----------------|-8--8--8-8--8--8-|-5--5--5---------|-8--8--8-5--5--5-|
A|-3--3--3---------|-6--6--6-6--5--5-|-3--3--3---------|-6--6--6-5--5--5-|
E|---------4--4--4-|-----------------|---------4--4--4-|-----------------|
   * ^ * ^ * ^ * ^   * ^ * ^ * ^ * ^   * ^ * ^ * ^ * ^   * ^ * ^ * ^ * ^

  Cm       Ab        Eb         Gm    Cm       Ab        Eb      Gm
e|-3--3--3---------|-----------------|-----------------|-----------------|
B|---------4--4--4-|-----------------|-4--4--4-4--4--4-|-----------------|
G|-5--5--5-5--5--5-|-8--8--8-8--7--7-|---------5--5--5-|-8--8--8-7--7--7-|
D|-----------------|-8--8--8-8--8--8-|-5--5--5---------|-8--8--8-5--5--5-|
A|-3--3--3---------|-6--6--6-6--5--5-|-3--3--3---------|-6--6--6-5--5--5-|
E|---------4--4--4-|-----------------|---------4--4--4-|-----------------|
   * ^ * ^ * ^ * ^   * ^ * ^ * ^ * ^   * ^ * ^ * ^ * ^   * ^ * ^ * ^ * ^

[Bridge]
  Cm       Ab        Eb         Gm    Cm       Ab        Eb      Gm
e|-3--3--3---------|-----------------|-----------------|-----------------|
B|---------4--4--4-|-----------------|-4--4--4-4--4--4-|-----------------|
G|-5--5--5-5--5--5-|-8--8--8-8--7--7-|---------5--5--5-|-8--8--8-7--7--7-|
D|-----------------|-8--8--8-8--8--8-|-5--5--5---------|-8--8--8-5--5--5-|
A|-3--3--3---------|-6--6--6-6--5--5-|-3--3--3---------|-6--6--6-5--5--5-|
E|---------4--4--4-|-----------------|---------4--4--4-|-----------------|
   * ^ * ^ * ^ * ^   * ^ * ^ * ^ * ^   * ^ * ^ * ^ * ^   * ^ * ^ * ^ * ^

  Cm       Ab        Eb         Gm    Cm       Ab        Eb      Gm       N.C.
e|-3--3--3---------|-----------------|-----------------|-----------------|---|
B|---------4--4--4-|-----------------|-4--4--4-4--4--4-|-----------------|---|
G|-5--5--5-5--5--5-|-8--8--8-8--7--7-|---------5--5--5-|-8--8--8-7--7--7-|---|
D|-----------------|-8--8--8-8--8--8-|-5--5--5---------|-8--8--8-5--5--5-|---|
A|-3--3--3---------|-6--6--6-6--5--5-|-3--3--3---------|-6--6--6-5--5--5-|---|
E|---------4--4--4-|-----------------|---------4--4--4-|-----------------|---|
   * ^ * ^ * ^ * ^   * ^ * ^ * ^ * ^   * ^ * ^ * ^ * ^   * ^ * ^ * ^ * ^

[Chorus]
  Cm       Ab        Eb         Gm    Cm       Ab        Eb      Gm
e|-3--3--3---------|-----------------|-----------------|-----------------|
B|---------4--4--4-|-----------------|-4--4--4-4--4--4-|-----------------|
G|-5--5--5-5--5--5-|-8--8--8-8--7--7-|---------5--5--5-|-8--8--8-7--7--7-|
D|-----------------|-8--8--8-8--8--8-|-5--5--5---------|-8--8--8-5--5--5-|
A|-3--3--3---------|-6--6--6-6--5--5-|-3--3--3---------|-6--6--6-5--5--5-|
E|---------4--4--4-|-----------------|---------4--4--4-|-----------------|
   * ^ * ^ * ^ * ^   * ^ * ^ * ^ * ^   * ^ * ^ * ^ * ^   * ^ * ^ * ^ * ^

  Cm       Ab        Eb         Gm    Cm       Ab        Eb      Gm
e|-3--3--3---------|-----------------|-----------------|-----------------|
B|---------4--4--4-|-----------------|-4--4--4-4--4--4-|-----------------|
G|-5--5--5-5--5--5-|-8--8--8-8--7--7-|---------5--5--5-|-8--8--8-7--7--7-|
D|-----------------|-8--8--8-8--8--8-|-5--5--5---------|-8--8--8-5--5--5-|
A|-3--3--3---------|-6--6--6-6--5--5-|-3--3--3---------|-6--6--6-5--5--5-|
E|---------4--4--4-|-----------------|---------4--4--4-|-----------------|
   * ^ * ^ * ^ * ^   * ^ * ^ * ^ * ^   * ^ * ^ * ^ * ^   * ^ * ^ * ^ * ^

[Instrumental]
  Cm       Ab        Eb         Gm    Cm       Ab        Eb      Gm
e|-3--3--3---------|-----------------|-----------------|-----------------|
B|---------4--4--4-|-----------------|-4--4--4-4--4--4-|-----------------|
G|-5--5--5-5--5--5-|-8--8--8-8--7--7-|---------5--5--5-|-8--8--8-7--7--7-|
D|-----------------|-8--8--8-8--8--8-|-5--5--5---------|-8--8--8-5--5--5-|
A|-3--3--3---------|-6--6--6-6--5--5-|-3--3--3---------|-6--6--6-5--5--5-|
E|---------4--4--4-|-----------------|---------4--4--4-|-----------------|
   * ^ * ^ * ^ * ^   * ^ * ^ * ^ * ^   * ^ * ^ * ^ * ^   * ^ * ^ * ^ * ^

  Cm       Ab        Eb         Gm    Cm       Ab        Eb      Gm
e|-3--3--3---------|-----------------|-----------------|-----------------|
B|---------4--4--4-|-----------------|-4--4--4-4--4--4-|-----------------|
G|-5--5--5-5--5--5-|-8--8--8-8--7--7-|---------5--5--5-|-8--8--8-7--7--7-|
D|-----------------|-8--8--8-8--8--8-|-5--5--5---------|-8--8--8-5--5--5-|
A|-3--3--3---------|-6--6--6-6--5--5-|-3--3--3---------|-6--6--6-5--5--5-|
E|---------4--4--4-|-----------------|---------4--4--4-|-----------------|
   * ^ * ^ * ^ * ^   * ^ * ^ * ^ * ^   * ^ * ^ * ^ * ^   * ^ * ^ * ^ * ^

  Cm       Ab        Eb         Gm    Cm       Ab       N.C.
e|-3--3--3---------|-----------------|-----------------|---7-------------||
B|---------4--4--4-|-----------------|-4--4--4-4--4--4-|-7---9---7-9-----||
G|-5--5--5-5--5--5-|-8--8--8-8--7--7-|---------5--5--5-|-------------6---||
D|-----------------|-8--8--8-8--8--8-|-5--5--5---------|-----------------||
A|-3--3--3---------|-6--6--6-6--5--5-|-3--3--3---------|-----------------||
E|---------4--4--4-|-----------------|---------4--4--4-|-----------------||
   * ^ * ^ * ^ * ^   * ^ * ^ * ^ * ^   * ^ * ^ * ^ * ^   * ^ * ^ * ^ * ^

[INTRO]
Cm        Ab         Eb        Eb     Gm   
   Hey-ey-ey-ey-yeah,  hey-ya, hey-ya, eh    
Cm        Ab         Eb        Gm
   Hey-ey-ey-ey-yeah,  hey-ya, hey-ya, eh

[VERSE]
Cm
  Up at night I'm awake cause it haunts me, 
Cm                                   Eb
  that I never got to say what I wanted (Oh my God, oh my God)
Cm
  I’m not the same as I was with you, I would jump out my skin just to get you
Eb
Oh my God, oh my God

[PRE-CHORUS]
Cm                        Bb
How could you have ever known
                   Gm                     Ab
If I never let it show, now I just wanna know are you?

[CHORUS]
    Cm          Ab             Eb         Eb        Gm    Cm
I'm fine, drop tears in the morning, give in to the lonely, eh
         Ab               Eb     Gm
Here it comes with no warning
   Cm         Ab             Eb        Eb         Gm Cm
Capsize, I'm first in the water, too close to the bottom
          Ab               Eb             Gm
I'm right back where I started, said I’m fine

[INTERLUDE]
Cm        Ab         Eb        Eb     Gm   
   Hey-ey-ey-ey-yeah,  hey-ya, hey-ya, eh    
Cm        Ab         Eb        Gm
   Hey-ey-ey-ey-yeah,  hey-ya, hey-ya, eh

[INSTRUMENTAL]
Cm  Ab   Eb   Eb   Gm   
Cm  Ab   Eb   Gm

[VERSE]
Cm                                                             NC
  Your silhouette is burned in my memory, rubble left from the moment that you left me
Eb
Oh my God, oh my God
    Cm
And    three words have never come easy, cause you're more than they ever could be
Eb
Oh my God, oh my God

[PRE-CHORUS]
Cm                        Bb
How could you have ever known
                   Gm                     Ab
If I never let it show, now I just wanna know are you?

[CHORUS]
    Cm          Ab             Eb         Eb        Gm    Cm
I'm fine, drop tears in the morning, give in to the lonely, eh
         Ab               Eb     Gm
Here it comes with no warning
   Cm         Ab             Eb        Eb         Gm Cm
Capsize, I'm first in the water, too close to the bottom
          Ab               Eb             Gm
I'm right back where I started, said I’m fine

[INTERLUDE]
Cm        Ab         Eb        Eb     Gm   
   Hey-ey-ey-ey-yeah,  hey-ya, hey-ya, eh    
Cm        Ab         Eb        Gm
   Hey-ey-ey-ey-yeah,  hey-ya, hey-ya, eh

[INSTRUMENTAL]
Cm  Ab   Eb   Eb   Gm   
Cm  Ab   Eb   Gm

[BRIDGE]
      Cm          Ab              Eb       Eb  Gm
I'm swimming up against the tide, oh my God
      Cm              Ab            Eb       Gm
I'm swimming but I'm getting tired, oh my God
      Cm          Ab              Eb       Eb  Gm
I'm swimming up against the tide, oh my God
      Cm              Ab            Eb       Gm   NC
I'm swimming but I'm getting tired, oh my God     Ohhhh


[CHORUS]
    Cm          Ab             Eb         Eb        Gm    Cm
I'm fine, drop tears in the morning, give in to the lonely, eh
         Ab               Eb     Gm
Here it comes with no warning
   Cm         Ab             Eb        Eb         Gm Cm
Capsize, I'm first in the water, too close to the bottom
          Ab               Eb             Gm
I'm right back where I started, said I’m fine

[INTERLUDE]
Cm        Ab         Eb        Eb     Gm   
   Hey-ey-ey-ey-yeah,  hey-ya, hey-ya, eh    
Cm        Ab         Eb        Gm
   Hey-ey-ey-ey-yeah,  hey-ya, hey-ya, eh

[OUTRO]
Cm  Ab   Eb   Eb  Gm   
Cm  Ab   Eb   Gm
Cm  Ab   Eb   Eb  Gm   
Cm  Ab   N.C.

*********************************** 
| * - Downbeat
| ^ - Upbeat 
***********************************

            
            
Suggest correction
Creating personal tab
Creating personal tab
You can edit any tab online and save it as your Personal.

You can edit, replace or remove any tab part or add personal notes – all changes will be seen only by you.

Personal tabs can be accessed anytime from any device, even offline.
Learn more »
Give kudos to tab author, rate the tab!
1 2 3 4 5
comments
print report bad tab
guest
You may want to rate the tab now too:
select rating
Wanna post a correction for this tab? Suggest correction