Oops, an error
Loading. Please wait.

Bizarre Love Triangle Tab

version 1
version 1

Whole song

Interactive

264,686 views 369 this week
3 commentsread comments
1 2 3 4 5
excellent!
x 23
add to favorites
launch autoscroll
font size
0
reset
how to read this tab
guitar tuner
Autoscroll
slow
fast
+/-
esc
set tempo
stop
Help us to improve Ultimate-Guitar.com Take our survey!
×
Capo
1st fret
[Intro]

C
 
Fmaj7            G
  Every time I think of you
        Em                        F
I get a shot right through into a bolt of blue
        F                          G
It's no problem of mine but it's a problem I find
Em                    F      -     F(#4)
Living a life that I can't leave behind
 
F                     G
  There's no sense in telling me
    Em                     F
The wisdom of a fool won't set you free
               F                              G
But that's the way that it goes and it's what nobody knows
    Em             F
And every day my confusion grows
 
 
Fmaj7         G(9)
Every time I see you falling
 Em                F  -  F(#4)
I get down on my knees and pray
    F   -   F(#4)     G
I'm waiting for that final moment
   Em                   F
You say the words that I can't say
 

[Instrumental]

C
 
I feel fine and I feel good
I feel like I never should
Whenever I get this way I just don't know what to say
Why can't we be ourselves like we were yesterday
 
I'm not sure what this could mean
I don't think you're what you seem
I do admit to myself that if I hurt someone else
Then I'd never see just what we're meant to be
 
Every time I see you falling
I get down on my knees and pray
I'm waiting for that final moment
You say the words that I can't say
 
Every time I see you falling
I'll get down on my knees and pray
I'm waiting for that final moment
You say the words that I can't say  [end on C]
 
This is for the first verse and chorus; the second is similar.
 
  C
e|-------------------------|
B|-------------1-----------|
G|---------0-------0-------|
D|-----2---------------2---|
A|-3-----------------------|
E|-(triplets)--------------|
  ^  .  ^  .  ^  .  ^  .

[Intro]
 
   Fmaj7            G                Em               F
e|-------0---------|----------------|----------------|----------------|
B|-----1-----1---1-|3-----3-----3---|0-----0-----0---|1-----1-----1---|
G|---2---------2---|--0-----0-----0-|--0-----0-----0-|--2-----2-----2-|
D|-3---------------|----0-----0-----|----2-----2-----|----3-----3-----|
A|-----------------|----------------|----------------|----------------|
E|-----------------|----------------|----------------|----------------|
  ^ . ^ . ^ . ^ .  ^ . ^ . ^ . ^ .  ^ . ^ . ^ . ^ .  ^ . ^ . ^ . ^ .
 Every time I think of you I get a shot right through into a bolt of blue
 
   F                G                Em               F     F(#4)
e|-----------------|--------3-------|--------0-------|----------------|
B|-1-----1-----1---|3-----3---------|0-----0-------0-|1-----0---------|
G|---2-----2-----0-|--0---------0---|--0---------0---|--2---------2---|
D|-----3-----3-----|----0---------0-|----2-----------|----3---------3-|
A|-----------------|----------------|----------------|----------------|
E|-----------------|----------------|----------------|----------------|
  ^ . ^ . ^ . ^ .  ^ . ^ . ^ . ^ .  ^ . ^ . ^ . ^ .  ^ . ^ . ^ . ^ .
 It's no problem of mine but it's a problem I find,
                                   living a life that I can't leave behind
 
   F                G                Em               F
e|----------------|--------3-------|----------------|----------------|
B|-1-----1-----1---|3-----3---3-----|0-----0-----0---|1-----1-----1---|
G|---2-----2-----2-|--0---------0---|--0-----0-----0-|--2-------2---2-|
D|-----3-----3-----|----0---------0-|----2-----2-----|----3-----------|
A|-----------------|----------------|----------------|----------------|
E|-----------------|----------------|----------------|----------------|
  ^ . ^ . ^ . ^ .  ^ . ^ . ^ . ^ .  ^ . ^ . ^ . ^ .  ^ . ^ . ^ . ^ .
 There's no sense in telling me, the wisdom of a fool won't set you free
 
   F                G                Em               F
e|-----------------|--------3-------|----------------|----------------|
B|-1-----1-----1---|3-----3---3-----|0-----0-----0---|1-----1-----1---|
G|---2-----2-----2-|--0---------0---|--0-----0-----0-|--2-------2---2-|
D|-----3-----3-----|----0---------0-|----2-----2-----|----3-----------|
A|-----------------|----------------|----------------|----------------|
E|-----------------|----------------|----------------|----------------|
  ^ . ^ . ^ . ^ .  ^ . ^ . ^ . ^ .  ^ . ^ . ^ . ^ .  ^ . ^ . ^ . ^ .
 But that's the way that it goes and it's what nobody knows,
                                   and every day my confusion grows
 
   Fmaj7            G(9)             Em               F     F(#4)
e|-----------0-----|--------5-------|--------3-------|----------------|
B|-1-------1---1---|3-----3---------|0-----0-------0-|1-----0---------|
G|-------2-------2-|--4---------4---|--0---------0---|--2---------2---|
D|-----3-----------|----5---------5-|----2-----------|----3-----3---3-|
A|-----------------|----------------|----------------|----------------|
E|-----------------|----------------|----------------|----------------|
  ^ . ^ . ^ . ^ .  ^ . ^ . ^ . ^ .  ^ . ^ . ^ . ^ .  ^ . ^ . ^ . ^ .
 Every time I see you falling, I get down on my knees and pray
 
   F                G                Em               F
e|-----------------|----------------|--------0-------|----------------|
B|-1-----0-----0---|3-----0---------|0-----0-------0-|1-----1-----1---|
G|---2-----2-----2-|--4---------4---|--0---------0---|--2-----2-----0-|
D|-----3-----3-----|----5-----5---5-|----2-----------|----3-----3-----|
A|-----------------|----------------|----------------|----------------|
E|-----------------|----------------|----------------|----------------|
  ^ . ^ . ^ . ^ .  ^ . ^ . ^ . ^ .  ^ . ^ . ^ . ^ .  ^ . ^ . ^ . ^ .


[Intro]

          C
e|------------------|
B|----------1-------|
G|-------0-----0----|
D|----2-----------2-|
A|-3----------------|
E|------------------|

F            G
Every time I think of you
        Em                        F
I get a shot right through into a bolt of blue
        F                          G
It's no problem of mine but it's a problem I find
Em                         F
Living a life that I can't leave behind

F                   G
There's no sense in telling me
    Em                     F
The wisdom of a fool won't set you free
               F                              G
But that's the way that it goes and it's what nobody knows
    Em               G
And every day my confusion grows


[Chorus]

F            G
Every time I see you falling
  Em             F
I get down on my knees and pray
    F                G
I'm waiting for that final moment
    Em                   F
You say the words that I can't say


(Repeat Intro)

F               G
I feel fine and I feel good
Em            F
I feel like I never should
         F                           G
Whenever I get this way I just don't know what to say
             Em                        F
Why can't we be ourselves like we were yesterday

F                 G 
I'm not sure what this could mean
Em                   F
I don't think you're what you seem
        F                       G              
I do admit to myself that if I hurt someone else
         Em                        F
Then I'd never see just what we're meant be


[Chorus]

C

(Chords)

C   x3201x
F   x33211
G   320003
Em  022000 

 is just plucking off the C chord.  This is repeated after
the first chorus.

where r=ring, p=pinky, m=middle, i=index fingers.  This way
you can switch easily from the C chord and pluck off the F chord
like he does on the song.  All the chords have their individual
strings plucked instead of strummed, listen to the song to get
the feel of it.
comments
print report bad tab
3 comments total.
0 reply
RaZoRb0iz 324 wrote on October 18 2005, 10:22 pm

Check your notes carefully dood. The intro's already wrong. last note in the intro should be a open 4th string.

0 reply
manamenski 39 wrote on June 18 2006, 08:01 pm

nice tabs dude.. ^^

0 reply
pedrogwapo 44 wrote on July 20 2006, 08:58 am

wrong tabs dude

I want to post or [tab]
guest
You may want to rate the tab now too:
select rating
Please do not post tabs as comments. Select "correction" instead!