Oops, an error
Loading. Please wait.

Beer And A Shot tab

4 views 1 this week
no commentswrite comment
1 2 3 4 5
3 more votes to show rating
add to favorites
×
Save as Personal and add changes to this tab that will be seen only by you. Learn more ›
×
You can save this tab as Personal to edit and correct it or add notes. All changes will be seen only by you. Learn more »
launch autoscroll
font size
0
reset
how to read this tab
guitar tuner
edit
Autoscroll
slow
fast
+/-
esc
set tempo
stop
Frenzal Rhomb - Beer and a Shot
 Tuning - Eb (E-flat) 
 

[Verse 1]
 F          A 
 Beer and a shot
 F          A  
 For everyone I forgot
 
[Verse 2]
 A             D      B     C
 Raise up your glass to the whole fucking lot
 Beer and a shot
 Beer and a shot
 For everyone I forgot
 
 Riff 1                  
 eb---8---7---3-3h5--|-0-0----------------|
 Bb-5---5---5--------|-3h5-3-0-1--3-1-----|
 Gb---------------------------------------|
 Cb---------------------------------------|
 Ab---------------------------------------|
 Eb---------------------------------------|

 Smoothed out like bitumen set in like rot
 
 Riff 2   
 eb--0-0-----------------|
 Bb--3h5-3-0-1--1-0------|
 Gb------------------0-2-|
 Cb----------------------|
 Ab----------------------|
 Eb----------------------|

 Beer and a shot
 Beer and a shot

 Riff 3                       
 eb--------------------------|
 Bb--------------------------|
 Gb--------------------------|
 Cb--------------------------|
 Ab-0-0h2--2h3-3-5-3-5-7-----|
 Eb----------------------7b--|

 C                 Em
 Nothing left to do
 
 C                        Em
 But to sink like cement just to float through the roof
 
 Em             D      G          C
 When I hit the ground everything will come true
 C          Em
 Beer and a shot
 C          Em
 Beer and a shot
 
 Riff 4 (1x)                                                                                    
 eb--------------------|---------------------|-----------------|
 Bb--------------------|---------------------|--3---2---7---8--|
 Gb--------------------|---------------------|--4---2---7---7--|
 Cb--5-7--7/9--7-------|-5-7--7/9-7----------|-----------------|
 Ab--------------10-9--|------------10-9--6--|-----------------|
 Eb--------------------|---------------------|-----------------|
 
 Riff 5 (1x)                                                                     
 eb---------------------|-----------------|
 Bb---------------------|--3---2---7---8--|
 Gb---------------------|--4---2---7---7--|
 Cb-5-7--7/9-7----------|-----------------|
 Ab------------10-9--6--|-----------------|
 Eb --------------------|-----------------|

     B3, A, D, D4 (1x)
 eb-----------------|
 Bb--3---2---7---8--|
 Gb--4---2---7---7--|
 Cb-----------------|
 Ab-----------------|
 Eb-----------------|
 
 Riff 6 (2x)      
 eb-------------------|
 Bb-------------------|
 Gb-7-9--9/11-9-------|
 Cb-------------12-11-|
 Ab-------------------|
 Eb-------------------|
 
 Riff 7 (1x)          
 eb-----------------|
 Bb-----------------|
 Gb-----------------|
 Cb-----------------|
 Ab-2--2/4--4/5--5--|
 Eb-----------------|

 D          F#
 Beer and a shot
 D                         F#
 It's everything that I've got
 F#     E5               A5                  D5
 At the end of the world please don't let it stop
 D5         A5           E5      D5
 Beer and a shot multiplied by a lot
 D5            A5      
 Keep pouring them out
 E5         D5 
 Every last drop
 D5      A5         E5              F#
 Bad medicine since before I know when
 D5         A5              E5   A5
 Beer and a shot multiplied by a lot
 D5         A5              E5   A5
 Beer and a shot multiplied by a lot
 D5         A5              E5   A5 
 Beer and a shot multiplied by a lot
 

 Riff 8      
 eb---5-----8----5----8----5----8----5-----0---|
 Bb-6-----5----5----5----6----5----5----5--5---|
 Gb--------------------------------------------|
 Cb--------------------------------------------|
 Ab--------------------------------------------|
 Eb--------------------------------------------|

 Beer and a shot
 Beer and a shot...



************************************

| h  Hammer-on
| b  Bend
| /  Slide up
 

************************************

            
            
Suggest correction
Creating personal tab
Creating personal tab
You can edit any tab online and save it as your Personal.

You can edit, replace or remove any tab part or add personal notes – all changes will be seen only by you.

Personal tabs can be accessed anytime from any device, even offline.
Learn more »
Give kudos to tab author, rate the tab!
1 2 3 4 5
comments
print report bad tab
guest
You may want to rate the tab now too:
select rating
Wanna post a correction for this tab? Suggest correction