Oops, an error
Loading. Please wait.

Mr Charisma bass

version 1
version 1

Whole song

Interactive

675 views 3 this week
no commentswrite comment
1 2 3 4 5
1 last vote to show rating
add to favorites
×
Save as Personal and add changes to this tab that will be seen only by you. Learn more ›
×
You can save this tab as Personal to edit and correct it or add notes. All changes will be seen only by you. Learn more »
launch autoscroll
font size
0
reset
guitar tuner
edit
Autoscroll
slow
fast
+/-
esc
set tempo
stop
Author
Finally I have worked out what i think is Frenzal's best song

Standard Tuning
EADG

Intro            X2                     X1                  X1
G-99----------------|-1212-----------------|-129--------------|
D---1010-77-9109109-|------1010-77-9109109-|-----1010-77-53---|
A-------------------|----------------------|---------------65-|
E-------------------|----------------------|------------------|

Verse                      X2   "He's So Cool He Makes The Rules"
G----------------------------|-----------------|
D--------------------------7~|-99\55-----------|
A---55--3---55--3---55--3--5~|-77\33-----------|
E-33--55--33--55--33--55-----|-----------------|

Pre-Chorus
"Hes The Man For Us"
G----------------------------------|
D-9-99\5-555--9-99\5-555/777777777-|
A-7-77\3-333--7-77\3-333/555555555-|
E----------------------------------|

Chorus (I know the chorus has slapping in it but i cant figure that out so just follow the guitar)
                                     X2
G-----------------------------------------|
D-----------------------------------------|
A-----5-55-2-22-3-33-----------3-33-5-55--|
E-3-33---------------3-33-0-00------------|

Bridge (Slap or Pop These Notes)
G-----1212--55--1111--|
D-99--1010--77--9-9---|
A-77------------------|
E---------------------|

Figure Out the Order For Yourselves

Now Put That in Your Pipe and Smoke it.
Tabbed by Rumple and Raymond

            
            
Suggest correction
Creating personal tab
Creating personal tab
You can edit any tab online and save it as your Personal.

You can edit, replace or remove any tab part or add personal notes – all changes will be seen only by you.

Personal tabs can be accessed anytime from any device, even offline.
Learn more »
Give kudos to tab author, rate the tab!
1 2 3 4 5
comments
print report bad tab
guest
You may want to rate the tab now too:
select rating
Wanna post a correction for this tab? Suggest correction