Oops, an error
Loading. Please wait.

Never Had So Much Fun bass

945 views 3 this week
no commentswrite comment
1 2 3 4 5
x 3
add to favorites
×
Save as Personal and add changes to this tab that will be seen only by you. Learn more ›
×
You can save this tab as Personal to edit and correct it or add notes. All changes will be seen only by you. Learn more »
launch autoscroll
font size
0
reset
guitar tuner
edit
Autoscroll
slow
fast
+/-
esc
set tempo
stop
Author
Difficulty
h = hold.
p = pause.

Intro

G|-----------------------------------------------------------|
D|-----------------------------------------------------------|
A|-------------------------------3-----------5---------------|
E|-------3---------------------------------------------------|

G|-----------------------------------------------------|
D|-----------------------------------------------------|
A|---------------3---------5--3------------------------|
E|-----3------------------------------------3----------|

G|-----------------------------------------------------|
D|-----------------------------------------------------|
A|-----3------5-------------3-----5--------------------|
E|--------------------3--------------------0-----------|

G|--------------------------------------------------------|
D|--------------------------------------------------------|
A|---3------------5--p------------------------------------|
E|--------------------------------------------------------|

G|-----------------------------------------|
D|-----------------------------------------|
A|-----------------------------------------|
E|---333333--------333333------------------|x2

Verse
G|------------------------------------------------------------------------|
D|------------------------------------------------------------------------|
A|------------------------------------333333------555555------------------|
E|---333333---------333333------------------------------------------------|x2

Chorus

G|----------------------------------------------|
D|----------------------------------------------|
A|----33---------55-----------------------------|
E|-------------------------333333---------------|

G|-----------------------------------------------|
D|-----------------------------------------------|
A|---33---55-----777777--------------------------|
E|-----------------------------------------------|

Post Chorus

G|----------------------------------------------|
D|-----------------55---------------------------|
A|-------77----------------55-------------------|
E|--3-------------------------------------------|

G|--------------------------------|
D|--------------------------------|
A|-----------33-------------------|
E|--33---------------33-----------|

Verse

Chorus

Post Chorus 2

G|----------------------------------------------|
D|-----------------55---------------------------|
A|-------77----------------55-------------------|
E|--3-------------------------------------------|x3

G|------------------------|
D|------------------------|
A|------------------------|
E|------333333------------|

guitar solo's

You'll have to work this out by yourself,
it depends on how well you can play the chords
are.

Eminor |  D | C | G   x2


Chorus

I'm pretty sure this is correct.

I couldn't ANY other bass tabs for this song.

Please email me corrections on:            haunt_me_@hotmail.com

            
            
Suggest correction
Creating personal tab
Creating personal tab
You can edit any tab online and save it as your Personal.

You can edit, replace or remove any tab part or add personal notes – all changes will be seen only by you.

Personal tabs can be accessed anytime from any device, even offline.
Learn more »
Give kudos to tab author, rate the tab!
1 2 3 4 5
comments
print report bad tab
guest
You may want to rate the tab now too:
select rating
Wanna post a correction for this tab? Suggest correction