Oops, an error
Loading. Please wait.

Secret Track bass

90 views 1 this week
1 commentread comment
1 2 3 4 5
2 more votes to show rating
add to favorites
×
Save as Personal and add changes to this tab that will be seen only by you. Learn more ›
×
You can save this tab as Personal to edit and correct it or add notes. All changes will be seen only by you. Learn more »
launch autoscroll
font size
0
reset
guitar tuner
edit
Autoscroll
slow
fast
+/-
esc
set tempo
stop
'Secret Tack' -- Bass Tab
Performed by Frenzal Rhomb
From the album "Coughing Up A Storm" on ? Records
Music and Lyrics by: Frenzal Rhomb
(c) 199? ? Records
---------------
Tabbed by: Justin Reynolds (illihexill@aol.com)
Ska/Punk/311 Bass Tab Archive -- http://members.aol.com/illihexill/index.html


Riff 1:
====

G:---------------0------320------------0-----------
D:--020------------02 -------2-------------02-----
A:---------------------------------------------------
E:---------0-----------------------0----------------

Riff 2:
====

G:----------------------2-2-2-
D:-2-2-2-4-4-5-5-5----------
A:------------------------------
E:------------------------------

            
            
Suggest correction
Creating personal tab
Creating personal tab
You can edit any tab online and save it as your Personal.

You can edit, replace or remove any tab part or add personal notes – all changes will be seen only by you.

Personal tabs can be accessed anytime from any device, even offline.
Learn more »
Give kudos to tab author, rate the tab!
1 2 3 4 5
comments
print report bad tab
1 comment total.
0 reply
akumamusha.ja 10 Oct 09, 2013 02:46 AM

G:----------0---------320--------0---------
D:--020--------2----------2------------2---
A:-----------------------------------------
E:-------0---0---0-3----------0-----0------

guest
Wanna post a correction for this tab? Suggest correction