Oops, an error
Loading. Please wait.

Insanity Tab

42 views 1 this week
no commentswrite comment
1 2 3 4 5
please rate
add to favorites
launch autoscroll
font size
0
reset
how to read this tab
guitar tuner
Autoscroll
slow
fast
+/-
esc
set tempo
stop
Help us to improve Ultimate-Guitar.com Take our survey!
×
Author
Difficulty
Tuning
intermediate
D A D G B E
Insanity

Original Song by Frequency

Facebook page: https://www.facebook.com/pages/Frequency/183127401701052?fref=ts

Songs:
https://www.facebook.com/pages/Frequency/183127401701052?id=183127401701052&sk=app_2405167945

Intro:

(after strings, quiet guitar with tremolo, delay and pitchbend effects)

E|--------------------------------|
B|--------------------------------|
G|--------------------------------|
D|--7------5------8------7--------|
A|--------------------------------|
D|0------0------0------0----------|

E|-------------------------------------|
B|-------------------------------------|
G|-------------------------------------|
D|--7------5-------8-----10-------12---|
A|--------------------------------0----|
D|0------0-------0----------------0----|

Riff:

(Push Rhythm, comes in slightly before the beat

E|--------------------------------|
B|--------------------------------|
G|--------------------------5-7---|
D|0---5-7-8-7-5---0---5-7-8-------|
A|0---------------0---------------|
D|0---------------0---------------|

E|--------------------------------|
B|--------------------------------|
G|--------------------------------|
D|0---5-7-8-7-5-----------------0-|         X8
A|0-----------------------------0-|
D|0---------------6p0-5p0-3p0-3-0-|

Rhythm guitar:

(comes in third playthrough of the riff)

E|--------------------------------|
B|--------------------------------|
G|--[sustain]---------------------|
D|0-----------------------------0-|
A|0-----------------------------0-|
D|0---------------6p0-5p0-3p0-3-0-|

E|--------------------------------|
B|--------------------------------|
G|--------------------------------|
D|0-----------------------------0-|
A|0-----------------------------0-|
D|0---------------6p0-5p0-3p0-3-0-|

E|--------------------------------|
B|--------------------------------|
G|--------------------------------|
D|0---------------3-------5-------|
A|0---------------3-------5-------|
D|0---0-0-0-0-0-0-3---3-3-5---5-5-|
      . . . . . .     . .     . .

E|--------------------------------|
B|--------------------------------|
G|--------------------------------|
D|0-----------------------------0-|
A|0-----------------------------0-|
D|0---0-0-0-0-0-0-6p0-5p0-3p0-3-0-|
      . . . . . .

E|--------------------------------|
B|--------------------------------|
G|--------------------------------|
D|0---------------3-------5-------|
A|0---------------3-------5-------|
D|0---0-0-0-0-0-0-3---3-3-5---5-5-|
      . . . . . .     . .     . .

E|---------------------------------|
B|---------------------------------|
G|---------------------------------|
D|0------------------------------0-|
A|0------------------------------0-|
D|0---0-0-0-0-0-0-6p0-5p0-10p0-7-0-|
      . . . . . .

Verse:

E|--------------------------------|
B|--------------------------------|
G|--------------------------------|
D|0---------------3-------5-------|
A|0---------------3-------5-------|
D|0---0-0-0-0-0-0-3---3-3-5---5-5-|
      . . . . . .     . .     . .

E|--------------------------------|
B|--------------------------------|
G|--------------------------------|
D|0-----------------------------0-|
A|0-----------------------------0-|
D|0---0-0-0-0-0-0-6p0-5p0-3p0-3-0-|
      . . . . . .

E|--------------------------------|
B|--------------------------------|
G|--------------------------------|
D|0---------------3-------5-------|
A|0---------------3-------5-------|
D|0---0-0-0-0-0-0-3---3-3-5---5-5-|
      . . . . . .     . .     . .

E|---------------------------------|
B|---------------------------------|
G|---------------------------------|
D|0------------------------------0-|
A|0------------------------------0-|
D|0---0-0-0-0-0-0-6p0-5p0-10p0-7-0-|
      . . . . . .

Play twice, then on last bar second time round, play:

E|--------------------------------|
B|--------------------------------|
G|--------------------------------|
D|0-------------------------------|
A|0-------------------------------|
D|0---0-0-0-0-0-0-6p0-5p0-10b^----|
      . . . . . .

Chorus:

E|--------------------------------|
B|--------------------------------|
G|--------------------------------|
D|--------0-----3---3-----3---3-3-|
A|--------0-----3---3-----3---3-3-|
D|0-0-0-0-0-0-0-3-3-3-3-3-3-3-3-3-|
  . . . .   . .   .   . .   .

E|--------------------------------|
B|--------------------------------|
G|--------------------------------|
D|--------8-----5---5-----5---5-5-|
A|--------8-----5---5-----5---5-5-|
D|8-8-8-8-8-8-8-5-5-5-5-5-5-5-5-5-|
  . . . .   . .   .   . .   .

E|--------------------------------|
B|--------------------------------|
G|--------------------------------|
D|--------0-----3---3-----3---3-3-|
A|--------0-----3---3-----3---3-3-|
D|0-0-0-0-0-0-0-3-3-3-3-3-3-3-3-3-|
  . . . .   . .   .   . .   .

E|------------------------------------|
B|------------------------------------|
G|-----------------------*---------*--|
D|--------8-------------10--------11--|         X2
A|--------8---------------------------|
D|8-8-8-8-8-8-8-8-10-10------11-11----|
  . . . .   . . . .  .       .  .

Post Chorus riff:

E|--------------------------------|
B|--------------------------------|
G|--------------------------5-7---|
D|0---5-7-8-7-5---0---5-7-8-------|
A|0---------------0---------------|
D|0---------------0---------------|

E|------------------------------------|
B|------------------------------------|
G|------------------------------------|
D|0---5-7-8-7-5---6---5---3---1---0---|
A|0---------------6---5---3---1---0---|
D|0---------------6---5---3---1---0---|

BASS SOLO

Guitars come back on:

E|--------------------------------|
B|--------------------------------|
G|--------------------------------|
D|---------------0----------------|
A|---------------0----------------|
D|6p0-5p0-10p0-8-0----------------|

And play the main riff again, leading up to the chorus

End the riff with

E|--------------------------------|
B|--------------------------------|
G|--------------------------------|
D|--------------------------------|
A|--------------------------------|
D|6p0-5p0-10b^--------------------|

Chorus again, see above.

Then let ring:

E|1----------------------------------|
B|3----------------------------------|
G|2----------------------------------|
D|0------------------------------0-0-|
A|0------------------------------0-0-|
D|0------------------------------0-0-|
                                 . .

Middle 8:

Another BASS SOLO...

E|--------------------------------|
B|--------------------------------|
G|--------------------------------|
D|0-0-----------------------------|
A|0-0-----------------------------|
D|0-0-----------------------------| x4
  . .

E|--------------------------------|
B|--------------------------------|
G|-----*----------------*---------|
D|0-0-12------------0-0-7---------|
A|0-0---------------0-0-----------|
D|0-0---------------0-0-----------|
  . .               . .

E|--------------------------------|
B|--------------------------------|
G|----------------------*---------|
D|0-0-*-------------0-0-5---------|
A|0-0-7-------------0-0-----------|
D|0-0---------------0-0-----------|

Solo:

Guitar 1

E|-----------------------------------------------|
B|-----------------------------------------------|
G|----------------------14----12----10-----10-12-|
D|12---12-14-15-14-12------12----12-----12-------|
A|-----------------------------------------------|
D|-----------------------------------------------|

E|-------------------------------------------------|
B|-------------------------------------------------|
G|12/14-14---14b15b14-12-12---12-14-14-12-10-12----|
D|----------------------------------------------12-|[let ring]
A|-------------------------------------------------|
D|-------------------------------------------------|

Guitar 2 (Synth)

E|-------------------------------------------------|
B|-------------------------15-13-------13----------|
G|/14----15----14----10----------15-14----15-14-12-|
D|----12----12----12----12-------------------------|
A|-------------------------------------------------|
D|-------------------------------------------------|

E|11-10-------------------------------------|
B|------15-14-15----------------------------|
G|---------------14-15-14----12-14----------|
D|------------------------15-------14-11----|
A|------------------------------------------|
D|------------------------------------------|

Guitar 1

E|--------------------------------|
B|------------15------------------|
G|------12-14-------------14------|
D|12-15---------------------------|
A|--------------------------------|
D|--------------------------------|

Guitar 2 (Synth)

E|--------------------------------|
B|------------17------------------|
G|------12-14---------------------|
D|12-15-------------------14------|
A|--------------------------------|
D|--------------------------------|

Guitar 1

E|-----------------------------------------------------------------------|
B|------------18--------18--------17--15--18------18-20-18--17--20-17-17-|
G|------12-14------------------------------------------------------------|
D|12-15------------------------------------------------------------------|
A|-----------------------------------------------------------------------|
D|-----------------------------------------------------------------------|

E|----------------------------------------------|
B|----------------------------------------------|
G|-----------------------12---12h14-15p14-15p14-|
D|12---12h14-15p14-15p14------------------------|
A|----------------------------------------------|
D|----------------------------------------------|

E|----------------------------------------------|
B|----------------------------------------------|
G|-----------------------12---12h14-15p14-15p14-|
D|12---12h14-15p14-15p14------------------------|
A|----------------------------------------------|
D|----------------------------------------------|

E|----------------------------------------------|
B|----------------------------------------------|
G|-----------------------12---12h14-15p14-15p14-|
D|12---12h14-15p14-15p14------------------------|
A|----------------------------------------------|
D|----------------------------------------------|

E|--------------------------------------------------|
B|-----------------------15p13-------------------15-|
G|-----------------12h14-------14p12-------12h14----|
D|12---12h14-15p14-------------------15p12----------|
A|--------------------------------------------------|
D|--------------------------------------------------|

Guitar 2 (Synth)

Harmonised with last two bars, played simultaneously.

E|----------------------------------------------|
B|----------------------------------------------|
G|-----------------------15---15h17-19p17-19p17-|
D|15---15h17-19p17-19p17------------------------|
A|----------------------------------------------|
D|----------------------------------------------|

E|--------------------------------------------------|
B|-----------------------18p17-------------------18-|
G|-----------------15h17-------17p15-------15h17----|
D|15---15h17-19p17-------------------19p15----------|
A|--------------------------------------------------|
D|--------------------------------------------------|

Slowed down chorus:

E|--------------------------------|
B|--------------------------------|
G|--------------------------------|
D|--------0-----3---3-----3---3-3-|
A|--------0-----3---3-----3---3-3-|
D|0-0-0-0-0-0-0-3-3-3-3-3-3-3-3-3-|
  . . . .   . .   .   . .   .

E|--------------------------------|
B|--------------------------------|
G|--------------------------------|
D|--------8-----5---5-----5---5-5-|
A|--------8-----5---5-----5---5-5-|
D|8-8-8-8-8-8-8-5-5-5-5-5-5-5-5-5-|
  . . . .   . .   .   . .   .

E|--------------------------------|
B|--------------------------------|
G|--------------------------------|
D|--------0-----3---3-----3---3-3-|
A|--------0-----3---3-----3---3-3-|
D|0-0-0-0-0-0-0-3-3-3-3-3-3-3-3-3-|
  . . . .   . .   .   . .   .

E|------------------------------------|
B|------------------------------------|
G|-----------------------*---------*--|
D|--------8-------------10--------11--|
A|--------8---------------------------|
D|8-8-8-8-8-8-8-8-10-10------11-11----|
  . . . .   . . . .  .       .  .

Slowed down riff variation (over chorus chords):

E|--------------------------------|
B|--------------------------------|
G|--------------------------5-7---|
D|0---5-7-8-7-5---3---5-7-8-------|
A|0---------------3---------------|
D|0---------------3---------------|

E|--------------------------------|
B|--------------------------------|
G|--------------------------5-7---|
D|8---5-7-8-7-5---5---5-7-8-------|         X2
A|8---------------5---------------|
D|8---------------5---------------|


Hope I helped :)
Suggest correction
What's this?
You can suggest a correction to this tab. Community and Mods will review your correction and vote to approve or reject it.
comments
We did not receive enough feedback on this tab! Please rate:
print report bad tab
1 2 3 4 5
guest
You may want to rate the tab now too:
select rating
Please do not post tabs as comments. Select "correction" instead!