Oops, an error
Loading. Please wait.

Mit Dir tab

version 1
version 1

Whole song

7,190 views 6 this week
1 commentread comment
1 2 3 4 5
x 3
add to favorites
×
Save as Personal and add changes to this tab that will be seen only by you. Learn more ›
×
You can save this tab as Personal to edit and correct it or add notes. All changes will be seen only by you. Learn more »
launch autoscroll
font size
0
reset
how to read this tab
guitar tuner
edit
Autoscroll
slow
fast
+/-
esc
set tempo
stop
Artist: Freundeskreis
Title: Mit dir
Album: Esperanto
Web: http://www.freundeskreis10.de/
Tabbed by Akyo

Pattern 1 is played in the Verses by Max Herre, Pattern 2
in those of Joy Denalane and they alter in the chorus.
Pattern 2 is just up one tone, so to play it you can also 
just stick a capo on the 2. fret



Tuning: Standard


Pattern 1:

|-----0--------0------0--------0----|
|------0---------------0------0-----|
|---4--------4------4-------4-------|
|-2--------0------------------------| 
|-----------------4--------0--------|
|-----------------------------------|



Pattern 2:

|-----------------------------------|
|-----7-------7----7------7---------|
|---6--6-----6----6-6----6-6--------|
|-4---------------------------------| 
|----------7-----6------------------|
|----------------------7------------|
Suggest correction
Creating personal tab
Creating personal tab
You can edit any tab online and save it as your Personal.

You can edit, replace or remove any tab part or add personal notes – all changes will be seen only by you.

Personal tabs can be accessed anytime from any device, even offline.
Learn more »
Give kudos to tab author, rate the tab!
1 2 3 4 5
comments
print report bad tab
1 comment total.
+1 reply
Flowjow 21 May 16, 2016 09:33 AM

Thanks. For me this way, pattern 2 is easier to play:

|-----2---------2---------2--------2----|
|---2---2-----2---2-----2---2----2---2--|
|---------------------------------------|
|-4--------2---------1------------------|
|------------------------------2--------|
|---------------------------------------|

guest
You may want to rate the tab now too:
select rating
Wanna post a correction for this tab? Suggest correction