Oops, an error
Loading. Please wait.

Lorely Tab

230 views 1 this week
no commentswrite comment
1 2 3 4 5
please rate
add to favorites
launch autoscroll
font size
0
reset
how to read this tab
guitar tuner
Autoscroll
slow
fast
+/-
esc
set tempo
stop
Help us to improve Ultimate-Guitar.com Take our survey!
×
Contributor
evfidripiy 81,578
Loreley - Friedrich Silcher (1789-1868)
Arranged by WL Hayden

Tabbed by Dirk Meineke - http://dirk.meineke.free.fr

p = pull-off   s = slide   tuning = E A D G B E   time signature = 6/8

  |   .   .   |   .   .     |   .   .   |   .   .     |   .   .   |   .   .
|---------------------0---|-0-----2-0---5---4---2---|-0-----------------------|
|-------------------------|-2-----------7---5---3---|-2-----------3-------3---|
|-------------------------|-2-----------------------|-2-----------4-------4---|
|-------------------------|-------------0-----------|-------------0-----------|
|-------------------------|-0-----------------------|-0-------0---------------|
|-------------------------|-------------------------|-------------------------|

  |   .   .   |   .   .     |   .   .   |   .   .     |   .   .   |   .   .
|-------------------------|---------------------0---|-0-----2-0---5---4---2---|
|-2-------2-2p0-------0---|-2-----------------------|-2-----------7---5---3---|
|-2-------2-------2-------|-2-----------------------|-2-----------------------|
|-2-----------------------|-2-----------------------|-------------0-----------|
|-------------------------|-0-------0---0-----------|-0-----------------------|
|-------------0-----------|-------------------------|-------------------------|

  |   .   .   |   .   .     |   .   .   |   .   .     |   .   .   |   .   .
|-0-----------------------|-------------0-----------|-------------------------|
|-2-----------3-------3---|-2-------2-------3---0---|-2-------------------2---|
|-2-----------4-------4---|-2-------2---------------|-2-----------------------|
|-------------0-----------|-2-----------------------|-------------------------|
|-0-------0---------------|-------------------------|-0-------0---0-----------|
|-------------------------|-------------0-----------|-------------------------|

  |   .   .   |   .   .     |   .   .   |   .   .     |   .   .   |   .   .
|-------------0-----------|-4-----------2-------2---|-0-------0-------0---2---|
|-0-----2-0-------0---0---|-----0---0-------2---2---|-----0---0---4-----------|
|-1-----2-1-------1---1---|-----1---1-------2---2---|-----1---1---------------|
|-------------------------|-------------------------|-------------------------|
|-------------------------|-------------0-----------|-2-----------2-----------|
|-0-----------0-----------|-0-----------------------|-------------------------|

  |   .   .   |   .   .     |   .   .   |   .   .     |   .   .   |   .   .
|-0---0---0---0---0---0---|-0-----2-0---5---4---2---|-0-------9---7-------7---|
|-----0---2---3---2---0---|-2-----------7---5---3---|-2-----------------------|
|-1-----------------------|-2-----------------------|-2-------9---------------|
|-------------------------|-------------0-----------|-------------0-----------|
|-------------------------|-0-----------------------|-0-----------------------|
|-0-----------------------|-------------------------|-------------------------|

  |   .   .   |   .   .     |   .   .   |   .   .
|-5-------5-5s4---2---4---|-5----------------------||
|-------------------------|------------------------||
|-6-----------------------|-6----------------------||
|-------------------------|------------------------||
|-0-----------------------|-0-------0---0----------||
|-------------0-----------|------------------------||

Suggest correction new What's this?
You can suggest a correction to this tab. Community and Mods will review your correction and vote to approve or reject it.
comments
We did not receive enough feedback on this tab! Please rate:
print report bad tab
1 2 3 4 5
guest
You may want to rate the tab now too:
select rating
Please do not post tabs as comments. Select "correction" instead!