Oops, an error
Loading. Please wait.

Fast Blood Tab

17,734 views 40 this week
2 commentsread comments
1 2 3 4 5
excellent!
x 7
add to favorites
launch autoscroll
font size
0
reset
how to read this tab
guitar tuner
Tab Pro tools
  • play this tab
  • loop segment
  • change instrument
  • show fretboard
  • metronome
×
Best way to learn
"Fast Blood"
Autoscroll
slow
fast
+/-
esc
set tempo
stop
Contributor
Difficulty
novice
Standard Tuning


Chord #1 = X07750
Chord #2 = 7X0770 and you hammer it off for 7X0750
Chord #3 = X00770 and you hammer it off for X00750
Chord #4 = 3X0230 (played during the chorus only)

Intro:
e|---0-0----0-0---0-0-----0-0-------------------|
B|---5-5----7h5---7h5-----5-5-------------------|
G|---7-7----7-7---7-7-----7-7-------------------|
D|---7-7----0-0---0-0-----7-7-------------------|
A|-0-0-0----x-x---0-0---0-0-0-------------------|
E|---x-x--7-7-7---x-x-----x-x-------------------| X2

Verse 1: Good night, it's stroke time...
e|---0-0----0-0---0-0-----0-0-------------------|
B|---5-5----7h5---7h5-----5-5-------------------|
G|---7-7----7-7---7-7-----7-7-------------------|
D|---7-7----0-0---0-0-----7-7-------------------|
A|-0-0-0----x-x---0-0---0-0-0-------------------|
E|---x-x--7-7-7---x-x-----x-x-------------------| X3

Chorus: And the fast blooooooooooooooooood...
e|--0-0---0-0---0-0---0-0---0-0---0-0---0-0-----|
B|--5-5---3-3---7h5---5-5---7h5---3-3---7-7-----|
G|--7-7---2-2---7-7---7-7---7-7---2-2---7-7-----|
D|--7-7---0-0---0-0---7-7---0-0---0-0---0-0-----|
A|--0-0---x-x---x-x---0-0---x-x---x-x---0-0-----|
E|--x-x---3-3---7-7---x-x---7-7---3-3---x-x-----|

Ohhhhh oh ohhhhh ohhhhh ohh...
e|--0-0---0-0---0-0---0-0-----------------------|
B|--5-5---7h5---7h5---5-5-----------------------|
G|--7-7---7-7---7-7---7-7-----------------------|
D|--7-7---0-0---0-0---7-7-----------------------|
A|--0-0---x-x---0-0---0-0-----------------------|
E|--x-x---7-7---x-x---x-x-----------------------|

The rest of the verses and choruses are the same so just refer back to the sections. And
ya have it!
comments
print report bad tab
2 comments total.
+1 reply
RandMcNally wrote on June 10 2010, 11:26 am

Perfect, thank you!

+1 reply
samrayner wrote on April 10 2011, 05:55 am

Spot on. Thanks!

I want to post or [tab]
guest
You may want to rate the tab now too:
select rating
Please do not post tabs as comments. Select "correction" instead!