Oops, an error
Loading. Please wait.

Holy Bass Tab

1,386 views 3 this week
1 commentread comment
1 2 3 4 5
1 last vote to show rating
add to favorites
launch autoscroll
font size
0
reset
guitar tuner
Autoscroll
slow
fast
+/-
esc
set tempo
stop
Help us to improve Ultimate-Guitar.com Take our survey!
×
Author
-------------------------------------------------------------------------------
                          FRIGHTENED RABBIT - Holy
-------------------------------------------------------------------------------

Tabbed By: Truck89
e-mail: clawrie89@gmail.com

Tuning: Standard (EADG)




Intro, bass enters at [0:22]

   1 + 2 + 3 + 4 +    1 + 2 + 3 + 4 +    1 + 2 + 3 + 4 +
G|------------------|------------------|------------------|
D|------------------|------------------|------------------|
A|-----------7-7-7--|-9-9-9-9-9-9-9-9--|-9-9-9-9-9-7-7-7--|
E|------------------|------------------|------------------|


   1 + 2 + 3 + 4 +    1 + 2 + 3 + 4 +    1 + 2 + 3 + 4 +    1 + 2 + 3 + 4 +
G|------------------|------------------|------------------|------------------|
D|------------------|------------------|------------------|------------------|
A|-0-0-0-0-0-0-0-0--|-0-0-0-0-0-7-7-7--|-9-9-9-9-9-9-9-9--|-9-9-9-9-9-7-7-7--|
E|------------------|------------------|------------------|------------------|




Verse 1 [0:31]

   1 + 2 + 3 + 4 +    1 + 2 + 3 + 4 +    1 + 2 + 3 + 4 +    1 + 2 + 3 + 4 +
G|------------------|------------------|------------------|------------------|
D|------------------|------------------|------------------|------------------|
A|-0-0-0-0-0-0-0-0--|-0-0-0-0-0-7-7-7--|-9-9-9-9-9-9-9-9--|-9-9-9-9-9-7-7-7--| (x4)
E|------------------|------------------|------------------|------------------|




Chorus 1 [0:54]

   1 + 2 + 3 + 4 +    1 + 2 + 3 + 4 +    1 + 2 + 3 + 4 +    1 + 2 + 3 + 4 +
G|------------------|---7--------------|------------------|------------------|
D|------------------|------------------|------------------|------/9-9-9-9-7--|
A|-5-5-5-5-5-5-5-5--|-5---5-7-7-7-7-9--|-9-9-9-9-9-9-9-9--|-9-9-9------------|
E|------------------|------------------|------------------|------------------|


   1 + 2 + 3 + 4 +    1 + 2 + 3 + 4 +    1 + 2 + 3 + 4 +    1 + 2 + 3 + 4 +
G|------------------|------------------|------------------|------------------|
D|-7-7-7-7-7-7-7-7--|-7-7-7------------|------------------|------------------|
A|------------------|------\7-7-7-7-5--|-5-5-5-5-5-5-5-5--|-5-5-5-5-x-7-7-7--|
E|------------------|------------------|------------------|------------------|




Post-chorus 1 [1:05]
(let open As ring throughout this section)

   1 + 2 + 3 + 4 +    1 + 2 + 3 + 4 +    1 + 2 + 3 + 4 +    1 + 2 + 3 + 4 +
G|------------------|------------------|------------------|------------------|
D|-7------------/11-|-------9----------|------------------|------------------|
A|-----0-0-0-0-0----|---0-0-----0-0-0--|-7h9-9-9-9-9-9-9--|-9-9-9-9-9-7-7-7--|
E|------------------|------------------|------------------|------------------|


   1 + 2 + 3 + 4 +    1 + 2 + 3 + 4 +    1 + 2 + 3 + 4 +    1 + 2 + 3 + 4 +
G|------------------|------------------|------------------|------------------|
D|-----9---11-------|-9--/14~-----\----|------------------|------------------|
A|-0-0---0---0-0-0--|---0-----0-----0--|-7h9-9-9-9-9-9-9--|-9-9-9-9-9-7-7-7--|
E|------------------|------------------|------------------|------------------|




Verse 2 [1:16]

   1 + 2 + 3 + 4 +    1 + 2 + 3 + 4 +    1 + 2 + 3 + 4 +    1 + 2 + 3 + 4 +
G|------------------|------------------|------------------|------------------|
D|------------------|------------------|------------------|------------------|
A|-0-0-0-0-0-0-0-0--|-0-0-0-0-0-7-7-7--|-9-9-9-9-9-9-9-9--|-9-9-9-9-9-7-7-7--|
E|------------------|------------------|------------------|------------------|


   1 + 2 + 3 + 4 +    1 + 2 + 3 + 4 +    1 + 2 + 3 + 4 +    1 + 2 + 3 + 4 +
G|------------------|------------------|------------------|------------------|
D|-------7---7------|---7---7----------|------------------|------------------|
A|-0-0-0---0---0-0--|-0---0---0-7-7-7--|-9-9-9-9-9-9-9-9--|-9-9-9-9-9-7-7-7--|
E|------------------|------------------|------------------|------------------|
   Let 7th fret on D ring here

   1 + 2 + 3 + 4 +    1 + 2 + 3 + 4 +    1 + 2 + 3 + 4 +    1 + 2 + 3 + 4 +
G|------------------|------------------|------------------|------------------|
D|------------------|------------------|------------------|------------------|
A|-0-0-0-0-0-0-0-0--|-0-0-0-0-0-7-7-7--|-9-9-9-9-9-9-9-9--|-9-9-9-9-9-7-7-7--|
E|------------------|------------------|------------------|------------------|


   1 + 2 + 3 + 4 +    1 + 2 + 3 + 4 +    1 + 2 + 3 + 4 +    1 + 2 + 3 + 4 +
G|------------------|------------------|------------------|------------------|
D|------------------|------------------|------------------|------------------|
A|-0-0-0-0-0-0-0-0--|-0-0-0-0-0-7-7-7--|-9-9-9-9-9-9-9-9--|-9-9-9-9-9-7-7-7--|
E|------------------|------------------|------------------|------------------|




Chorus 2 [1:39]

   1 + 2 + 3 + 4 +    1 + 2 + 3 + 4 +    1 + 2 + 3 + 4 +    1 + 2 + 3 + 4 +
G|------------------|------------------|------------------|------------------|
D|------------------|------------------|------------------|------/9-9-9-9-7--|
A|-5-5-5-5-5-5-5-5--|-5-5-5-7-7-7-7-9--|-9-9-9-9-9-9-9-9--|-9-9-9------------|
E|------------------|------------------|------------------|------------------|


   1 + 2 + 3 + 4 +    1 + 2 + 3 + 4 +    1 + 2 + 3 + 4 +    1 + 2 + 3 + 4 +
G|------------------|------------------|------------------|------------------|
D|-7-7-7-7-7-7-7-7--|-7-7-7------------|------------------|------------------|
A|------------------|------\7-7-7-7-5--|-5-5-5-5-5-5-5-5--|-5-5-5-5-5-7-7-7--|
E|------------------|------------------|------------------|------------------|




Post-chorus 2 [1:50]
(let open As ring throughout this section)

   1 + 2 + 3 + 4 +    1 + 2 + 3 + 4 +    1 + 2 + 3 + 4 +    1 + 2 + 3 + 4 +
G|------------------|------------------|------------------|------------------|
D|-7------------/11-|-------9----------|------------------|------------------|
A|-----0-0-0-0-0----|---0-0-----0-0-0--|-7h9-9-9-9-9-9-9--|-9-9-9-9-9-7-7-7--|
E|------------------|------------------|------------------|------------------|


   1 + 2 + 3 + 4 +    1 + 2 + 3 + 4 +    1 + 2 + 3 + 4 +    1 + 2 + 3 + 4 +
G|------------------|------------------|------------------|------------------|
D|-----9---11-------|-9--/14~-----\----|------------------|------------------|
A|-0-0---0---0-0-0--|---0-----0-----0--|-7h9-9-9-9-9-9-9--|-9-9-9-9-9-7-7-7--|
E|------------------|------------------|------------------|------------------|




Interlude [2:01]

   1 2 3 4   1 2 3 4   1 2 3 4   1 2 3 4
G|---------|---------|---------|---------|
D|---------|---------|---------|---------|
A|-5~------|-----7~--|-5~------|---------|
E|---------|---------|---------|---------|


   1 2 3 4   1 2 3 4   1 2 3 4   1 2 3 4
G|---------|---------|---------|---------|
D|-7~------|---------|---------|---------|
A|---------|---------|\5~------|---------|
E|---------|---------|---------|---------|


   1 2 3 4   1 2 3 4   1 2 3 4   1 2 3 4
G|---------|---------|---------|---------|
D|---------|---------|---------|---------|
A|/9~------|---------|\5~------|---------|
E|---------|---------|---------|---------|


   1 2 3 4   1 2 3 4   1 2 3 4   1 2 3 4
G|---------|---------|---------|---------|
D|-7~------|---------|---------|---------|
A|---------|---------|-5~------|-----777-|
E|---------|---------|---------|---------|




Bridge [2:23]

   1 + 2 + 3 + 4 +    1 + 2 + 3 + 4 +    1 + 2 + 3 + 4 +    1 + 2 + 3 + 4 +
G|------------------|------------------|------------------|------------------|
D|------------------|------------------|------------------|------------------|
A|-9-9-9-9-9-9-9-9--|-9-9-9-9-9-7-7-7--|------------------|-7-----7-7-7-7-7--| (x4)
E|------------------|------------------|-5-5-5-5-5-5-5-5--|---0-0------------|
                                                          Let open Es ring here



Chorus 3 [2:46]

   1 + 2 + 3 + 4 +    1 + 2 + 3 + 4 +    1 + 2 + 3 + 4 +    1 + 2 + 3 + 4 +
G|------------------|------------------|------------------|------------------|
D|------------------|------------------|------------------|------------------|
A|-5-5-5-5-5-5-5-5--|-5-5-5/7-7-7-7/9--|-9-9-9-9-9-9-9-9--|-9-9-9-9-9-9-9-9--|
E|------------------|------------------|------------------|------------------|


   1 + 2 + 3 + 4 +    1 + 2 + 3 + 4 +    1 + 2 + 3 + 4 +    1 + 2 + 3 + 4 +
G|------------------|------------------|------------------|------------------|
D|/7-7-7-7-7-7-7-7--|-7-7-7-7-7-7-7-7\-|------------------|------------------|
A|------------------|------------------|-5-5-5-5-5-5-5-5--|-5-5-5-5-5-5-5-5--|
E|------------------|------------------|------------------|------------------|


   1 + 2 + 3 + 4 +    1 + 2 + 3 + 4 +    1 + 2 + 3 + 4 +    1 + 2 + 3 + 4 +
G|------------------|------------------|------------------|------------------|
D|------------------|------------------|------------------|------------------|
A|/9-9-9-9-9-9-9-9--|-9-9-9-9-9-9-9-9--|\5-5-5-5-5-5-5-5--|-5-5-5-5-5-5-5-5--|
E|------------------|------------------|------------------|------------------|


   1 + 2 + 3 + 4 +    1 + 2 + 3 + 4 +    1 + 2 + 3 + 4 +    1 + 2 + 3 + 4 +
G|------------------|------------------|------------------|------------------|
D|/7-7-7-7-7-7-7-7--|-7-7-7-7-7-7-7-7\-|------------------|------------------|
A|------------------|------------------|-5-5-5-5-5-5-5-5--|-5-5-5-5-x-7-7-7--|
E|------------------|------------------|------------------|------------------|




Outro

   1 + 2 + 3 + 4 +    1 + 2 + 3 + 4 +    1 + 2 + 3 + 4 +    1 + 2 + 3 + 4 +
G|------------------|------------------|------------------|------------------|
D|-7-7-7-7-7-7-7-7--|-7-7-7-7-7-6-6-6--|------------------|------------------|
A|------------------|------------------|-9-9-9-9-9-9-9-9--|-9-9-9-9-9-5-5-5--|
E|------------------|------------------|------------------|------------------|


   1 + 2 + 3 + 4 +    1 + 2 + 3 + 4 +    1 + 2 + 3 + 4 +    1 + 2 + 3 + 4 +
G|------------------|------------------|------------------|------------------|
D|-7-7-7-7-7-7-7-7--|-7-7-7-7-7-6-6-6--|------------------|------------------|
A|------------------|------------------|-9-9-9-9-9-9-9-9--|-9-9-9-9-9-5-5-5--|
E|------------------|------------------|------------------|------------------|


   1 + 2 + 3 + 4 +    1 + 2 + 3 + 4 +    1 + 2 + 3 + 4 +    1 + 2 + 3 + 4 +
G|------------------|------------------|------------------|------------------|
D|-7-7-7-7-7-7-7-7--|-7-7-7-7-7-6-6-6--|------------------|------------------|
A|------------------|------------------|------------------|-----------5-5-5--|
E|------------------|------------------|-2-2-2-2-2-2-2-2--|-2-2-2-2-2--------|


   1 + 2 + 3 + 4 +    1 + 2 + 3 + 4 +    1 + 2 + 3 + 4 +    1 + 2 + 3 + 4 +
G|------------------|------------------|------------------|------------------|
D|------------------|------------------|------------------|------------------|
A|------------------|------------------|------------------|-----------5-5-5--|
E|-5-5-5-5-5-5-5-5--|-5-5-5-5-5-4-4-4--|-2-2-2-2-2-2-2-2--|-2-2-2-2-2--------|


And thats it! You may want to play a lot of the D string 7th fret notes as 12s on the A 
instead if you think
it sounds better/is easier to play/like the number 12 better than 7...?
Cheers!




===KEY===

| /  slide up
| \  slide down
| h  hammer-on
| p  pull-off
| ~  vibrato
| +  harmonic
| x  Mute note
===============================================================================
Suggest correction
Give kudos to tab author, rate the tab!
1 2 3 4 5
comments
print report bad tab
1 comment total.
0 reply
wbalston 194 Sep 27, 2013 08:29 PM

so fun. bueno

guest
You may want to rate the tab now too:
select rating
Wanna post a correction for this tab? Suggest correction