Oops, an error
Loading. Please wait.

I Wish I Was Sober Acoustic chords

version 1
version 1

Whole song

5,512 views 51 this week
2 commentsread comments
1 2 3 4 5
x 10
add to favorites
×
Save as Personal and add changes to this tab that will be seen only by you. Learn more ›
×
You can save this tab as Personal to edit and correct it or add notes. All changes will be seen only by you. Learn more »
launch autoscroll
font size
0
reset
transpose
0
reset
simplify chords
display chords
guitar tuner
edit
Autoscroll
slow
fast
+/-
esc
set tempo
stop
Author
Difficulty
Strumming
There is no strumming pattern for this song yet. and get +5 IQ
Artist: Frightened Rabbit
Album: Painting of a Panic Attack
Track: I Wish I Was Sober

Taken from:
https://www.youtube.com/watch?v=EoNcPzKOTS0
https://www.youtube.com/watch?v=tidCs1-0GOo


[Intro]

       A     A      D     Amaj     E     E       F#m    D
e|---------------|--------------|-------------|--------------|
B|---------------|--------------|---5-5---5-5-|---2-2--------|
G|-----6-6---6-6-|---7-7----6-6-|---4-4---4-4-|---2-2----7-7-| x 2
D|-----7-7---7-7-|---7-7----7-7-|---7-7---7-7-|---4-4----7-7-|
A|-----7-7---7-7-|-5------4-----|---7-7---7-7-|---4-4--5-----|
E|---5-----5-----|--------------|-0-----0-----|-2------------|

[Verse] 

A
Fall prey to the blizzard head
D               Amaj             E
Wrapped my hand around the glass again
       F#m                                  D
We all thought that I might change as I got older

A
Fell down and nothing bled
D          Amaj           E
Wrapped in cotton alcohol again
       F#m                                D
To the hilt I hear from the prick upon my shoulder

A
Free pour the fruitless thoughts
D            Amaj                 E
It's far too late to talk so much but
E                            F#m             D
Still not giving up though I wish that I was sober

[Chorus]  

e|---------------|-------------|--------------|---------------|
B|---------------|-------------|--------------|---------------|
G|---------------|-------------|--------------|---------------| 
D|-----2-2---2-2-|---4-2---2-2-|---2-6---6-2--|--4-2---2-2----|
A|---4-----4-----|-5-----0-----|--------------|--5-----0------|
E|---------------|-------------|-0-----0------|---------------|

e|---------------|-------------|--------------|---------------|
B|---------------|-------------|--------------|---------------|
G|---------------|-------------|--------------|---------------| 
D|-----2-2---2-2-|---4-2---2-2-|---2-6---6-2--|---2-6---6-7---|
A|---4-----4-----|-5-----0-----|--------------|---------------|
E|---------------|-------------|-0-----0------|-0-----0-------|


Forgive me I can't speak straight
Forgive me I can't
Forgive me it's far too late

[Verse] 

    A  D  E  F#m  D
e|--0--0--0---2---0---|
B|--2--3--0---2---3---|
G|--2--2--1---2---2---|
D|--2--0--2---4---0---|
A|--0-----2---4-------|
E|--------0---2-------|

A
Choke down the gateway drug
D                 A                       
Opened the gates, in came the flood, it comes
E                       F#m              D
Like a blush of love, it hits me without warning
A
Long nights of getting lost
D                  A
I walk beneath the bridge I don't know
E                     F#m              D
I need black suit for tomorrow, I'm in mourning

A
My love you should know
D               A
The best of me left hours ago so
E                    F#m              D
Shove it rag into my mouth and let me smoulder
A
Fallout and the damage done
D                   A
I can't un-sing the things I've sung
E                   F#m                      D
Still not giving up though I wish that I was sober

[Chorus]  

e|---------------|-------------|--------------|---------------|
B|---------------|-------------|--------------|---------------|
G|---------------|-------------|--------------|---------------| x2 
D|-----2-2---2-2-|---4-2---2-2-|---2-6---6-2--|--4-2---2-2----|
A|---4-----4-----|-5-----0-----|--------------|-5-----0-------|
E|---------------|-------------|-0-----0------|---------------|

Forgive me I can't speak straight
Forgive me I can't
Forgive me it's far too late

[Outro] 

E E E E

A  D                 A        E
Oh come and shake me till I'm dry
     F#m             D
Oh I wish that I was sober
A  D              A              E
Oh come to me and kill the night off
  F#m             D
I wish that I was sober

A  D                 A        E
Oh come and shake me till I'm dry
     F#m             D
Oh I wish that I was sober
A  D              A              E
Oh come to me and kill the night off
  F#m             D      
I wish that I was sober

A

end


Suggest correction
Creating personal tab
Creating personal tab
You can edit any tab online and save it as your Personal.

You can edit, replace or remove any tab part or add personal notes – all changes will be seen only by you.

Personal tabs can be accessed anytime from any device, even offline.
Learn more »
comments
print report bad tab
2 comments total.
0 reply
robrrts 10 Dec 05, 2016 02:33 PM

great effort. the chorus line is perfect. I think however the F# chord in the verse/outtro should be F#m. Sounds a lot closer to my ears. Great tab all the same though!

guest
You may want to rate the tab now too:
select rating
Wanna post a correction for this tab? Suggest correction