Oops, an error
Loading. Please wait.

If You Were Me Tab

4,480 views 12 this week
no commentswrite comment
1 2 3 4 5
excellent!
x 6
add to favorites
launch autoscroll
font size
0
reset
how to read this tab
guitar tuner
Tab Pro tools
  • play this tab
  • loop segment
  • change instrument
  • show fretboard
  • metronome
Autoscroll
slow
fast
+/-
esc
set tempo
stop
Contributor
Difficulty
novice
If You Were Me
By Frightened Rabbit

Standard Tuning

Capo on 3 (Live)
Capo on 4 (Recording)

Fairly simple, maybe a wee change during the chorus but you'll pick it up if you play along.



    Em                                      C
e|-----------------------------------------------------------|
B|-----------------------------------------------------------|
G|-----0---0-----0---0-----0---0-----0---0------0----0-------|
D|-------2---------2---------2---------2----------2----------|
A|------------------------------------------3----------------|
E|-0---------0---------0---------0---------------------------|

                                 D*
e|-----------------------------------------------------------|
B|-----------------------------------------------------------|
G|-----0---0-----0---0-----0---0-----0---0------0----0-------|
D|-------2---------2---------2---------4----------4----------|
A|-3---------3---------3---------5----------5----------------|
E|-----------------------------------------------------------|

                        C
e|-----------------------------------------------------------|
B|-----------------------------------------------------------|
G|-----0---0-----0---0-----0---0-----0---0------0----0-------|
D|-------4---------4---------2---------2----------2----------|
A|-5---------5---------3---------3---------------------------|
E|------------------------------------------3----------------|


e|--------------------------|
B|--------------------------|
G|-----0---0-----0---0------|
D|-------2---------2--------|
A|-0------------------------|
E|-----------0--------------|


Em            C
Time passes, accept the blame
       D*                            C
and I accept that you might never care to see me again
at least we can shake off some shame
still I quiver like a dying leaf in a violent wind

I dont wish to be excused for this,
My disguise, my excuses they have worn so thin
May I ask, answer honestly, 
What would you have done if you were me?

Em                 C                D*
How could it go so wrong so quickly
               C         D*
What would you do if you were me
Don't assume that I have found this easy
Oh, how would you feel if you were me

Time passes, kills everything
in it's path and then it buries us in history
Some bits, some bits seem to stick
I thought you and I could be a timeless thing
I have to ask, please answer honestly, 
What would you have done if you were me?

How could it go so wrong so quickly
What would you do if you were me
Don't assume that I have found this easy
How would you feel if you were me?
comments
print report bad tab
I want to post or [tab]
guest
You may want to rate the tab now too:
select rating
Please do not post tabs as comments. Select "correction" instead!