Oops, an error
Loading. Please wait.

Old Old Fashioned Bass Tab

1,470 views 1 this week
no commentswrite comment
1 2 3 4 5
please rate
add to favorites
launch autoscroll
font size
0
reset
guitar tuner
Autoscroll
slow
fast
+/-
esc
set tempo
stop
Help us to improve Ultimate-Guitar.com Take our survey!
×
Difficulty
intermediate
Old old fashioned - bass
Frightened rabbit

Tabbed by: mustafa
Email: m_gokmen@hotmail.com

After the great gig by the band, I was searching desperately for the bass of this song. 
couldnt find any, thats why I had to make effort for my first bass tab!


Start at 4 seconds in

G|-------------------------------------------------------------|
D|----------------------10-8--10-8-88-88-88-88-88-88--6-8-6-8--|
A|----66-66-66-66-66-66----------------------------------------|
E|-------------------------------------------------------------|

G|--------------------------------------------------------------------|
D|------------------------------10-8-10-8--88-88-88-88-88-88--6-8-6-8-|
A|----66-66-66-11-13-13--66-66----------------------------------------|
E|--------------------------------------------------------------------|

Repeat until 2:39
G|--------------------------------------------------------------------|
D|------------------------------10-8-10-8--88-88-88-88-88-88--6-8-6-8-|
A|----66-66-66-11-13-13--66-66----------------------------------------|
E|--------------------------------------------------------------------|

I couldnt figure out the change in the last part. Any help and corrections are welcome!
Suggest correction
Give kudos to tab author, rate the tab!
1 2 3 4 5
comments
print report bad tab
guest
You may want to rate the tab now too:
select rating
Wanna post a correction for this tab? Suggest correction