Oops, an error
Loading. Please wait.

Old Old Fashioned Tab

version 1
version 1

Whole song

14,787 views 1 this week
no commentswrite comment
1 2 3 4 5
excellent!
x 4
add to favorites
launch autoscroll
font size
0
reset
how to read this tab
guitar tuner
Autoscroll
slow
fast
+/-
esc
set tempo
stop
Help us to improve Ultimate-Guitar.com Take our survey!
×
Author
Capo
7th fret
-------------------------------------------------------------------------------
                             Old Old Fashioned - Frightened Rabbit
-------------------------------------------------------------------------------
Tabbed by: DJ Dixon
Email: DJDixonMusic@yahoo.com

Tuning: Standard (capo 7th fret)

This is definitely the way Scott (F.R. lead singer) plays it.
I didn't include the breakdown.. You'll have to listen to the 
song to get the strumming and lyrics down.

e|-0---0-0-0-0-0---0-0-0-0-0---0-0-0-0---1---0-0-0-0-0-0---0-0-0-0-0---------|
B|-1---1-1-1-1-1---1-1-1-1-1---1-1-1-1---0---1-1-1-1-1-1---1-1-1-1-1---------|
G|-0---0-0-0-0-0---0-0-0-0-0---2-0-2-0---0---0-0-0-0-0-0---0-0-0-0-0---------|
D|-2---3-3-2-0-2---3-3-2-0-2---2-2-2-2---0---3-2-3-2-0-2---3-3-2-0-2---------|
A|-3---3-3-3-3-3---3-3-3-3-3---0-0-0-0---2---3-3-3-3-3-3---3-3-3-3-3---------|
E|-0---0-0-0-0-0---0-0-0-0-0---0-0-0-0---3---0-0-0-0-0-0---0-0-0-0-0---------|

e|-0-0-0-0--1----------------------------------0-0---0-0--0-0---0-0-0-0-0----|
B|-1-1-1-1--0----------------------------------1-1---1-1--1-1---1-1-1-1-1----|
G|-2-0-2-0--0----------------------------------0-0---0-0--0-0---0-0-0-0-0----|
D|-2-2-2-2--0----------------------------------3-2---3-2--0-2---3-3-2-0-2----|
A|-0-0-0-0--2----------------------------------3-3---3-3--3-3---3-3-3-3-3----|
E|-0-0-0-0--3----------------------------------0-0---0-0--0-0---0-0-0-0-0----|
       Oh   Turn off the tv it's killing us we never speak.
e|-0-0-0-0------1--------------------------------------0-0---0-0--0-0---0-0-0-0-0----|
B|-1-1-1-1------0--------------------------------------1-1---1-1--1-1---1-1-1-1-1----|
G|-2-0-2-0------0--------------------------------------0-0---0-0--0-0---0-0-0-0-0----|
D|-2-2-2-2------0--------------------------------------3-2---3-2--0-2---3-3-2-0-2----|
A|-0-0-0-0------2--------------------------------------3-3---3-3--3-3---3-3-3-3-3----|
E|-0-0-0-0------3--------------------------------------0-0---0-0--0-0---0-0-0-0-0----|
       Theres a radio in the corner it's dying to make us    see.
e|-0-0--0----0----- 1-----------------------------------0-0--0-0--0-0---0-0-0-0-0----|
B|-1-1--1----1------0-----------------------------------1-1--1-1--1-1---1-1-1-1-1----|
G|-2-0--2----0------0-----------------------------------0-0--0-0--0-0---0-0-0-0-0----|
D|-2-2--2----2------0-----------------------------------3-2--3-2--0-2---3-3-2-0-2----|
A|-0-0--0----0------2-----------------------------------3-3--3-3--3-3---3-3-3-3-3----|
E|-0-0--0----0------3-----------------------------------0-0--0-0--0-0---0-0-0-0-0----|
     So give me the soft soft static with a human voice underneath.

Repeat this pattern for each line of vocals.

************************************
Suggest correction
comments
print report bad tab
guest
You may want to rate the tab now too:
select rating
Wanna post a correction for this tab? Suggest correction