Oops, an error
Loading. Please wait.

Poke Tab

version 3
version 3

Whole song

Interactive

59,338 views 75 this week
8 commentsread comments
1 2 3 4 5
x 29
add to favorites
launch autoscroll
font size
0
reset
how to read this tab
guitar tuner
Autoscroll
slow
fast
+/-
esc
set tempo
stop
Help us to improve Ultimate-Guitar.com Take our survey!
×
Author
Tuning: EADEBe [3rd string down 3 semi-tones]

[Intro]
e|---------------------------------|---------------------------------|
B|---5-------5-------5-------5-----|---5-------5-------5-------5-----|
E|-------0-------0-------0-------0-|-------0-------0-------0-------0-|
D|-----6-------6-------6-------6---|-----6-------6-------6-------6---|
A|-7-------7-------7-------7-------|-7-------7-------7-------7-------|
E|---------------------------------|---------------------------------|

[Verse] (x6)
e|---------------------------------|---------------------------------|
B|---5-------5-------5-------5-----|---7-------7-------7-------7-----|
E|-------0-------0-------0-------0-|-------0-------0-------0-------0-|
D|-----6-------6-------6-------6---|-----9-------9-------9-------9---|
A|-7-------7-------7-------7-------|-9-------9-------9-------9-------|
E|---------------------------------|---------------------------------|

e|-------------------------------------|---------------------------------|
B|---10--------10--------9-------9-----|---7-------7-------7-------7-----|
E|---------0---------0-------0-------0-|-------0-------0-------0-------0-|
D|------11--------11-------9-------9---|-----9-------9-------9-------9---|
A|-0---------0-------------------------|---------------------------------|
E|---------------------0-------0-------|-7-------7-------7-------7-------|

[Chorus] (x4)
e|-----------------------------------------|-------------------------------------------|
B|---10--------10--------10--------10------|---10--------10---------10---------10------|
E|---------0---------0---------0---------0-|---------0---------0----------0----------0-|
D|------11--------11--------11-------------|------11--------11---------11---------11---|
A|-0---------0---------0---------0----11---|-9---------9---------11--------------------|
E|-----------------------------------------|--------------------------------12---------|

e|-------------------------------------|
B|---9--------9--------9--------9------|
E|--------0--------0--------0--------0-|
D|-----11-------11-------11-------11---|
A|-------------------------------------|
E|-9---------9--------9--------9-------|

[Bridge]
e|-----------------------------------------|---------------------------------|
B|---10--------10--------10--------10------|---9-------9-------9-------7-----|
E|---------0---------0---------0---------0-|-------0-------0-------0-------0-|
D|------11--------11--------11--------11---|-----9-------9-------9-------9---|
A|-0---------0---------0---------0---------|---------------------------------|
E|-----------------------------------------|-0-------0-------0-------0-------|

e|---------------------------------|
B|---9-------9-------9-------7-----|
E|-------0-------0-------0-------0-|
D|-----9-------9-------9-------9---|
A|---------------------------------|
E|-0-------0-------0-------0-------|

[Verse] (x5)
e|---------------------------------|---------------------------------|
B|---5-------5-------5-------5-----|---7-------7-------7-------7-----|
E|-------0-------0-------0-------0-|-------0-------0-------0-------0-|
D|-----6-------6-------6-------6---|-----9-------9-------9-------9---|
A|-7-------7-------7-------7-------|-9-------9-------9-------9-------|
E|---------------------------------|---------------------------------|

e|-------------------------------------|---------------------------------|
B|---10--------10--------9-------9-----|---7-------7-------7-------7-----|
E|---------0---------0-------0-------0-|-------0-------0-------0-------0-|
D|------11--------11-------9-------9---|-----9-------9-------9-------9---|
A|-0---------0-------------------------|---------------------------------|
E|---------------------0-------0-------|-7-------7-------7-------7-------|

[Chorus] (x8)
e|-----------------------------------------|-------------------------------------------|
B|---10--------10--------10--------10------|---10--------10---------10---------10------|
E|---------0---------0---------0---------0-|---------0---------0----------0----------0-|
D|------11--------11--------11-------------|------11--------11---------11---------11---|
A|-0---------0---------0---------0----11---|-9---------9---------11--------------------|
E|-----------------------------------------|--------------------------------12---------|

e|-------------------------------------|
B|---9--------9--------9--------9------|
E|--------0--------0--------0--------0-|
D|-----11-------11-------11-------11---|
A|-------------------------------------|
E|-9---------9--------9--------9-------|

[Bridge]
e|-----------------------------------------|---------------------------------|
B|---10--------10--------10--------10------|---9-------9-------9-------7-----|
E|---------0---------0---------0---------0-|-------0-------0-------0-------0-|
D|------11--------11--------11--------11---|-----9-------9-------9-------9---|
A|-0---------0---------0---------0---------|---------------------------------|
E|-----------------------------------------|-0-------0-------0-------0-------|

e|---------------------------------|
B|---9-------9-------9-------7-----|
E|-------0-------0-------0-------0-|
D|-----9-------9-------9-------9---|
A|---------------------------------|
E|-0-------0-------0-------0-------|
Suggest correction
comments
print report bad tab
8 comments total. Showing first comments.
0 reply
kalebBosco 30 Jul 21, 2009 02:46 PM

Been hoping/looking for this tab for a looong time. Thanks. Sounds money.

+2 reply
lortepik 21 Aug 04, 2009 04:16 PM

Gret tab. Excellent job.
Personally, I find it easier to play the last bar of the verse like this:
e¦---------------------------------|
B¦---7-------7-------7-------7-----|
E¦-----7-------7-------7-------7---|
D¦---------------------------------|
A¦-------7-------7-------7-------7-|
E¦-7-------7-------7-------7-------|
Same notes, just suites me better.

Once again, outstanding job on this tab.

0 reply
joerick 72 Nov 21, 2009 09:02 PM

Yey! Been trying to figure this one out for ages! Thank you!

guest
You may want to rate the tab now too:
select rating
Wanna post a correction for this tab? Suggest correction